  0
SECTION
  2
HEADER
  9
$ACADVER
  1
AC1015
  9
$ACADMAINTVER
 70
     6
  9
$DWGCODEPAGE
  3
ANSI_1252
  9
$INSBASE
 10
0.0
 20
0.0
 30
0.0
  9
$EXTMIN
 10
0.0
 20
0.0
 30
0.0
  9
$EXTMAX
 10
841.0
 20
594.0
 30
0.0
  9
$LIMMIN
 10
0.0
 20
0.0
  9
$LIMMAX
 10
841.0
 20
594.0
  9
$ORTHOMODE
 70
     0
  9
$REGENMODE
 70
     1
  9
$FILLMODE
 70
     1
  9
$QTEXTMODE
 70
     0
  9
$MIRRTEXT
 70
     1
  9
$LTSCALE
 40
1.0
  9
$ATTMODE
 70
     1
  9
$TEXTSIZE
 40
3.5
  9
$TRACEWID
 40
1.0
  9
$TEXTSTYLE
  7
Standard
  9
$CLAYER
  8
0
  9
$CELTYPE
  6
ByLayer
  9
$CECOLOR
 62
   256
  9
$CELTSCALE
 40
1.0
  9
$DISPSILH
 70
     0
  9
$DIMSCALE
 40
1.0
  9
$DIMASZ
 40
6.0
  9
$DIMEXO
 40
1.0
  9
$DIMDLI
 40
3.75
  9
$DIMRND
 40
0.0
  9
$DIMDLE
 40
0.0
  9
$DIMEXE
 40
1.0
  9
$DIMTP
 40
0.0
  9
$DIMTM
 40
0.0
  9
$DIMTXT
 40
3.5
  9
$DIMCEN
 40
2.5
  9
$DIMTSZ
 40
0.0
  9
$DIMTOL
 70
     0
  9
$DIMLIM
 70
     0
  9
$DIMTIH
 70
     1
  9
$DIMTOH
 70
     1
  9
$DIMSE1
 70
     0
  9
$DIMSE2
 70
     0
  9
$DIMTAD
 70
     1
  9
$DIMZIN
 70
     0
  9
$DIMBLK
  1

  9
$DIMASO
 70
     1
  9
$DIMSHO
 70
     1
  9
$DIMPOST
  1

  9
$DIMAPOST
  1

  9
$DIMALT
 70
     0
  9
$DIMALTD
 70
     3
  9
$DIMALTF
 40
0.0393700787
  9
$DIMLFAC
 40
1.0
  9
$DIMTOFL
 70
     1
  9
$DIMTVP
 40
0.0
  9
$DIMTIX
 70
     0
  9
$DIMSOXD
 70
     0
  9
$DIMSAH
 70
     0
  9
$DIMBLK1
  1

  9
$DIMBLK2
  1

  9
$DIMSTYLE
  2
ISO-25
  9
$DIMCLRD
 70
     0
  9
$DIMCLRE
 70
     0
  9
$DIMCLRT
 70
     0
  9
$DIMTFAC
 40
1.0
  9
$DIMGAP
 40
1.524
  9
$DIMJUST
 70
     0
  9
$DIMSD1
 70
     0
  9
$DIMSD2
 70
     0
  9
$DIMTOLJ
 70
     0
  9
$DIMTZIN
 70
     0
  9
$DIMALTZ
 70
     0
  9
$DIMALTTZ
 70
     0
  9
$DIMUPT
 70
     0
  9
$DIMDEC
 70
     3
  9
$DIMTDEC
 70
     3
  9
$DIMALTU
 70
     2
  9
$DIMALTTD
 70
     3
  9
$DIMTXSTY
  7
Standard
  9
$DIMAUNIT
 70
     0
  9
$DIMADEC
 70
     2
  9
$DIMALTRND
 40
0.0
  9
$DIMAZIN
 70
     0
  9
$DIMDSEP
 70
    44
  9
$DIMATFIT
 70
     3
  9
$DIMFRAC
 70
     0
  9
$DIMLDRBLK
  1

  9
$DIMLUNIT
 70
     2
  9
$DIMLWD
 70
    -2
  9
$DIMLWE
 70
    -2
  9
$DIMTMOVE
 70
     0
  9
$LUNITS
 70
     2
  9
$LUPREC
 70
     2
  9
$SKETCHINC
 40
1.0
  9
$FILLETRAD
 40
10.0
  9
$AUNITS
 70
     0
  9
$AUPREC
 70
     2
  9
$MENU
  1
.
  9
$ELEVATION
 40
0.0
  9
$PELEVATION
 40
0.0
  9
$THICKNESS
 40
0.0
  9
$LIMCHECK
 70
     0
  9
$CHAMFERA
 40
10.0
  9
$CHAMFERB
 40
10.0
  9
$CHAMFERC
 40
20.0
  9
$CHAMFERD
 40
0.0
  9
$SKPOLY
 70
     0
  9
$TDCREATE
 40
2455413.41454787
  9
$TDUCREATE
 40
2455413.331214537
  9
$TDUPDATE
 40
2455413.414547882
  9
$TDUUPDATE
 40
2455413.331214549
  9
$TDINDWG
 40
0.0000000116
  9
$TDUSRTIMER
 40
0.0000000116
  9
$USRTIMER
 70
     1
  9
$ANGBASE
 50
0.0
  9
$ANGDIR
 70
     0
  9
$PDMODE
 70
     0
  9
$PDSIZE
 40
-1.0
  9
$PLINEWID
 40
0.0
  9
$SPLFRAME
 70
     0
  9
$SPLINETYPE
 70
     6
  9
$SPLINESEGS
 70
     8
  9
$HANDSEED
  5
3C1
  9
$SURFTAB1
 70
     6
  9
$SURFTAB2
 70
     6
  9
$SURFTYPE
 70
     6
  9
$SURFU
 70
     6
  9
$SURFV
 70
     6
  9
$UCSBASE
  2

  9
$UCSNAME
  2

  9
$UCSORG
 10
0.0
 20
0.0
 30
0.0
  9
$UCSXDIR
 10
1.0
 20
0.0
 30
0.0
  9
$UCSYDIR
 10
0.0
 20
1.0
 30
0.0
  9
$UCSORTHOREF
  2

  9
$UCSORTHOVIEW
 70
     0
  9
$UCSORGTOP
 10
0.0
 20
0.0
 30
0.0
  9
$UCSORGBOTTOM
 10
0.0
 20
0.0
 30
0.0
  9
$UCSORGLEFT
 10
0.0
 20
0.0
 30
0.0
  9
$UCSORGRIGHT
 10
0.0
 20
0.0
 30
0.0
  9
$UCSORGFRONT
 10
0.0
 20
0.0
 30
0.0
  9
$UCSORGBACK
 10
0.0
 20
0.0
 30
0.0
  9
$PUCSBASE
  2

  9
$PUCSNAME
  2

  9
$PUCSORG
 10
0.0
 20
0.0
 30
0.0
  9
$PUCSXDIR
 10
1.0
 20
0.0
 30
0.0
  9
$PUCSYDIR
 10
0.0
 20
1.0
 30
0.0
  9
$PUCSORTHOREF
  2

  9
$PUCSORTHOVIEW
 70
     0
  9
$PUCSORGTOP
 10
0.0
 20
0.0
 30
0.0
  9
$PUCSORGBOTTOM
 10
0.0
 20
0.0
 30
0.0
  9
$PUCSORGLEFT
 10
0.0
 20
0.0
 30
0.0
  9
$PUCSORGRIGHT
 10
0.0
 20
0.0
 30
0.0
  9
$PUCSORGFRONT
 10
0.0
 20
0.0
 30
0.0
  9
$PUCSORGBACK
 10
0.0
 20
0.0
 30
0.0
  9
$USERI1
 70
     0
  9
$USERI2
 70
     0
  9
$USERI3
 70
     0
  9
$USERI4
 70
     0
  9
$USERI5
 70
     0
  9
$USERR1
 40
0.0
  9
$USERR2
 40
0.0
  9
$USERR3
 40
0.0
  9
$USERR4
 40
0.0
  9
$USERR5
 40
0.0
  9
$WORLDVIEW
 70
     1
  9
$SHADEDGE
 70
     3
  9
$SHADEDIF
 70
    70
  9
$TILEMODE
 70
     1
  9
$MAXACTVP
 70
    64
  9
$PINSBASE
 10
0.0
 20
0.0
 30
0.0
  9
$PLIMCHECK
 70
     0
  9
$PEXTMIN
 10
1.0000000000E+20
 20
1.0000000000E+20
 30
1.0000000000E+20
  9
$PEXTMAX
 10
-1.0000000000E+20
 20
-1.0000000000E+20
 30
-1.0000000000E+20
  9
$PLIMMIN
 10
0.0
 20
0.0
  9
$PLIMMAX
 10
420.0
 20
297.0
  9
$UNITMODE
 70
     0
  9
$VISRETAIN
 70
     1
  9
$PLINEGEN
 70
     0
  9
$PSLTSCALE
 70
     1
  9
$TREEDEPTH
 70
  3020
  9
$CMLSTYLE
  2
Standard
  9
$CMLJUST
 70
     0
  9
$CMLSCALE
 40
20.0
  9
$PROXYGRAPHICS
 70
     1
  9
$MEASUREMENT
 70
     1
  9
$CELWEIGHT
370
    -1
  9
$ENDCAPS
280
     0
  9
$JOINSTYLE
280
     0
  9
$LWDISPLAY
290
     1
  9
$INSUNITS
 70
     4
  9
$HYPERLINKBASE
  1

  9
$STYLESHEET
  1

  9
$XEDIT
290
     1
  9
$CEPSNTYPE
380
     0
  9
$PSTYLEMODE
290
     1
  9
$FINGERPRINTGUID
  2
{997D1F0D-9FCD-4E3F-B386-605C419E9974}
  9
$VERSIONGUID
  2
{FAEB1C32-E019-11D5-929B-00C0DF256EC4}
  9
$EXTNAMES
290
     1
  9
$PSVPSCALE
 40
0.0
  9
$OLESTARTUP
290
     0
  0
ENDSEC
  0
SECTION
  2
CLASSES
  0
CLASS
  1
ACDBDICTIONARYWDFLT
  2
AcDbDictionaryWithDefault
  3
ObjectDBX Classes
 90
        0
280
     0
281
     0
  0
CLASS
  1
VISUALSTYLE
  2
AcDbVisualStyle
  3
ObjectDBX Classes
 90
     4095
280
     0
281
     0
  0
CLASS
  1
DICTIONARYVAR
  2
AcDbDictionaryVar
  3
ObjectDBX Classes
 90
        0
280
     0
281
     0
  0
CLASS
  1
ACDBPLACEHOLDER
  2
AcDbPlaceHolder
  3
ObjectDBX Classes
 90
        0
280
     0
281
     0
  0
CLASS
  1
LAYOUT
  2
AcDbLayout
  3
ObjectDBX Classes
 90
        0
280
     0
281
     0
  0
ENDSEC
  0
SECTION
  2
TABLES
  0
TABLE
  2
VPORT
  5
8
330
0
100
AcDbSymbolTable
 70
     1
  0
VPORT
  5
29
330
8
100
AcDbSymbolTableRecord
100
AcDbViewportTableRecord
  2
*Active
 70
     0
 10
0.0
 20
0.0
 11
1.0
 21
1.0
 12
420.5
 22
297.0
 13
0.0
 23
0.0
 14
10.0
 24
10.0
 15
10.0
 25
10.0
 16
0.0
 26
0.0
 36
1.0
 17
0.0
 27
0.0
 37
0.0
 40
594.0
 41
1.4158249158
 42
50.0
 43
0.0
 44
0.0
 50
0.0
 51
0.0
 71
     0
 72
  2000
 73
     1
 74
     3
 75
     0
 76
     0
 77
     0
 78
     0
281
     0
 65
     1
110
0.0
120
0.0
130
0.0
111
1.0
121
0.0
131
0.0
112
0.0
122
1.0
132
0.0
 79
     0
146
0.0
  0
ENDTAB
  0
TABLE
  2
LTYPE
  5
5
330
0
100
AcDbSymbolTable
 70
     6
  0
LTYPE
  5
14
330
5
100
AcDbSymbolTableRecord
100
AcDbLinetypeTableRecord
  2
ByBlock
 70
     0
  3

 72
    65
 73
     0
 40
0.0
  0
LTYPE
  5
15
330
5
100
AcDbSymbolTableRecord
100
AcDbLinetypeTableRecord
  2
ByLayer
 70
     0
  3

 72
    65
 73
     0
 40
0.0
  0
LTYPE
  5
16
330
5
100
AcDbSymbolTableRecord
100
AcDbLinetypeTableRecord
  2
Continuous
 70
     0
  3
Solid line
 72
    65
 73
     0
 40
0.0
  0
LTYPE
  5
3B
330
5
100
AcDbSymbolTableRecord
100
AcDbLinetypeTableRecord
  2
HIDDEN
 70
     0
  3
Hidden __ __ __ __ __ __ __ __ __ __ __ __ __ __
 72
    65
 73
     2
 40
1.905
 49
1.27
 74
     0
 49
-0.635
 74
     0
  0
LTYPE
  5
3C
330
5
100
AcDbSymbolTableRecord
100
AcDbLinetypeTableRecord
  2
PHANTOM
 70
     0
  3
Phantom ______  __  __  ______  __  __  ______
 72
    65
 73
     6
 40
12.7
 49
6.35
 74
     0
 49
-1.27
 74
     0
 49
1.27
 74
     0
 49
-1.27
 74
     0
 49
1.27
 74
     0
 49
-1.27
 74
     0
  0
LTYPE
  5
3D
330
5
100
AcDbSymbolTableRecord
100
AcDbLinetypeTableRecord
  2
CENTER
 70
     0
  3
Center ____ _ ____ _ ____ _ ____ _ ____ _ ____
 72
    65
 73
     4
 40
10.16
 49
6.35
 74
     0
 49
-1.27
 74
     0
 49
1.27
 74
     0
 49
-1.27
 74
     0
  0
LTYPE
  5
3E
330
5
100
AcDbSymbolTableRecord
100
AcDbLinetypeTableRecord
  2
CENTERX2
 70
     0
  3
Center (2x) ________  __  ________  __  _____
 72
    65
 73
     4
 40
20.32
 49
12.7
 74
     0
 49
-2.54
 74
     0
 49
2.54
 74
     0
 49
-2.54
 74
     0
  0
LTYPE
  5
3F
330
5
100
AcDbSymbolTableRecord
100
AcDbLinetypeTableRecord
  2
DOT2
 70
     0
  3
Dot (.5x) ........................................
 72
    65
 73
     2
 40
0.635
 49
0.0
 74
     0
 49
-0.635
 74
     0
  0
ENDTAB
  0
TABLE
  2
LAYER
  5
2
330
0
100
AcDbSymbolTable
 70
     1
  0
LAYER
  5
10
330
2
100
AcDbSymbolTableRecord
100
AcDbLayerTableRecord
  2
0
 70
     0
 62
     7
  6
Continuous
370
    -3
390
F
  0
ENDTAB
  0
TABLE
  2
STYLE
  5
3
330
0
100
AcDbSymbolTable
 70
     1
  0
STYLE
  5
11
330
3
100
AcDbSymbolTableRecord
100
AcDbTextStyleTableRecord
  2
Standard
 70
     0
 40
0.0
 41
1.0
 50
0.0
 71
     0
 42
2.5
  3
txt
  4

  0
ENDTAB
  0
TABLE
  2
VIEW
  5
6
330
0
100
AcDbSymbolTable
 70
     0
  0
ENDTAB
  0
TABLE
  2
UCS
  5
7
330
0
100
AcDbSymbolTable
 70
     0
  0
ENDTAB
  0
TABLE
  2
APPID
  5
9
330
0
100
AcDbSymbolTable
 70
     1
  0
APPID
  5
12
330
9
100
AcDbSymbolTableRecord
100
AcDbRegAppTableRecord
  2
ACAD
 70
     0
  0
ENDTAB
  0
TABLE
  2
DIMSTYLE
  5
A
330
0
100
AcDbSymbolTable
 70
     1
100
AcDbDimStyleTable
  0
DIMSTYLE
105
27
330
A
100
AcDbSymbolTableRecord
100
AcDbDimStyleTableRecord
  2
ISO-25
 70
     0
 41
2.5
 42
0.625
 43
3.75
 44
1.25
 73
     0
 74
     0
 77
     1
 78
     8
140
2.5
141
2.5
143
0.0393700787
147
0.625
171
     3
172
     1
271
     2
272
     2
274
     3
278
    44
283
     0
284
     8
340
11
  0
ENDTAB
  0
TABLE
  2
BLOCK_RECORD
  5
1
330
0
100
AcDbSymbolTable
 70
     1
  0
BLOCK_RECORD
  5
1F
330
1
100
AcDbSymbolTableRecord
100
AcDbBlockTableRecord
  2
*Model_Space
340
22
  0
BLOCK_RECORD
  5
1B
330
1
100
AcDbSymbolTableRecord
100
AcDbBlockTableRecord
  2
*Paper_Space
340
1E
  0
BLOCK_RECORD
  5
23
330
1
100
AcDbSymbolTableRecord
100
AcDbBlockTableRecord
  2
*Paper_Space0
340
26
  0
ENDTAB
  0
ENDSEC
  0
SECTION
  2
BLOCKS
  0
BLOCK
  5
20
330
1F
100
AcDbEntity
  8
0
100
AcDbBlockBegin
  2
*Model_Space
 70
     0
 10
0.0
 20
0.0
 30
0.0
  3
*Model_Space
  1

  0
ENDBLK
  5
21
330
1F
100
AcDbEntity
  8
0
100
AcDbBlockEnd
  0
BLOCK
  5
1C
330
1B
100
AcDbEntity
 67
     1
  8
0
100
AcDbBlockBegin
  2
*Paper_Space
 70
     0
 10
0.0
 20
0.0
 30
0.0
  3
*Paper_Space
  1

  0
ENDBLK
  5
1D
330
1B
100
AcDbEntity
 67
     1
  8
0
100
AcDbBlockEnd
  0
BLOCK
  5
24
330
23
100
AcDbEntity
  8
0
100
AcDbBlockBegin
  2
*Paper_Space0
 70
     0
 10
0.0
 20
0.0
 30
0.0
  3
*Paper_Space0
  1

  0
ENDBLK
  5
25
330
23
100
AcDbEntity
  8
0
100
AcDbBlockEnd
  0
ENDSEC
  0
SECTION
  2
ENTITIES
  0
LINE
  5
40
330
1F
100
AcDbEntity
  8
0
  6
CENTERX2
 62
     7
100
AcDbLine
 10
108.9148780488
 20
1480.0211308585
 30
0.0
 11
108.9298932977
 21
1266.7381608509
 31
0.0
  0
LINE
  5
41
330
1F
100
AcDbEntity
  8
0
  6
CENTERX2
 62
     7
100
AcDbLine
 10
-591.0851219512
 20
1480.0211308585
 30
0.0
 11
-591.0701067023
 21
1266.7381608509
 31
0.0
  0
LINE
  5
42
330
1F
100
AcDbEntity
  8
0
  6
Continuous
 62
     7
370
    15
100
AcDbLine
 10
1112.7148648881
 20
1428.92113003
 30
0.0
 11
1112.9148980759
 21
1429.1211315529
 31
0.0
  0
LINE
  5
43
330
1F
100
AcDbEntity
  8
0
  6
Continuous
 62
     7
370
    15
100
AcDbLine
 10
1112.9148980759
 20
1453.7211326049
 30
0.0
 11
1112.7148648881
 21
1453.9211322652
 31
0.0
  0
LINE
  5
44
330
1F
100
AcDbEntity
  8
0
  6
Continuous
 62
     7
370
    15
100
AcDbLine
 10
1112.7148648881
 20
1453.9211322652
 30
0.0
 11
1111.1148378037
 21
1453.9211322652
 31
0.0
  0
LINE
  5
45
330
1F
100
AcDbEntity
  8
0
  6
Continuous
 62
     7
370
    15
100
AcDbLine
 10
1111.1148378037
 20
1428.92113003
 30
0.0
 11
1112.7148648881
 21
1428.92113003
 31
0.0
  0
LINE
  5
46
330
1F
100
AcDbEntity
  8
0
  6
Continuous
 62
     7
370
    15
100
AcDbLine
 10
1111.1148378037
 20
1453.9211322652
 30
0.0
 11
1110.9149238251
 21
1453.7211326049
 31
0.0
  0
LINE
  5
47
330
1F
100
AcDbEntity
  8
0
  6
Continuous
 62
     7
370
    15
100
AcDbLine
 10
1110.9149238251
 20
1429.1211315529
 30
0.0
 11
1111.1148378037
 21
1428.92113003
 31
0.0
  0
LINE
  5
48
330
1F
100
AcDbEntity
  8
0
  6
Continuous
 62
     7
370
    15
100
AcDbLine
 10
-690.8851219563
 20
1453.9211322652
 30
0.0
 11
-691.0851219512
 21
1453.7211326049
 31
0.0
  0
LINE
  5
49
330
1F
100
AcDbEntity
  8
0
  6
Continuous
 62
     7
370
    15
100
AcDbLine
 10
-691.0851219512
 20
1429.1211315529
 30
0.0
 11
-690.8851219563
 21
1428.92113003
 31
0.0
  0
LINE
  5
4A
330
1F
100
AcDbEntity
  8
0
  6
Continuous
 62
     7
370
    15
100
AcDbLine
 10
-690.8851219563
 20
1428.92113003
 30
0.0
 11
-689.2851219821
 21
1428.92113003
 31
0.0
  0
LINE
  5
4B
330
1F
100
AcDbEntity
  8
0
  6
Continuous
 62
     7
370
    15
100
AcDbLine
 10
-689.2851219821
 20
1453.9211322652
 30
0.0
 11
-690.8851219563
 21
1453.9211322652
 31
0.0
  0
LINE
  5
4C
330
1F
100
AcDbEntity
  8
0
  6
Continuous
 62
     7
370
    15
100
AcDbLine
 10
-689.2851219821
 20
1428.92113003
 30
0.0
 11
-689.0851218562
 21
1429.1211315529
 31
0.0
  0
LINE
  5
4D
330
1F
100
AcDbEntity
  8
0
  6
Continuous
 62
     7
370
    15
100
AcDbLine
 10
-689.0851218562
 20
1453.7211326049
 30
0.0
 11
-689.2851219821
 21
1453.9211322652
 31
0.0
  0
LINE
  5
4E
330
1F
100
AcDbEntity
  8
0
  6
Continuous
 62
     7
370
    15
100
AcDbLine
 10
1110.9149238251
 20
1453.9211322652
 30
0.0
 11
1062.5273963593
 21
1453.9211322652
 31
0.0
  0
LINE
  5
4F
330
1F
100
AcDbEntity
  8
0
  6
Continuous
 62
     7
370
    15
100
AcDbLine
 10
1031.3024303101
 20
1453.9211322652
 30
0.0
 11
123.9148756646
 21
1453.9211322652
 31
0.0
  0
LINE
  5
50
330
1F
100
AcDbEntity
  8
0
  6
Continuous
 62
     7
370
    15
100
AcDbLine
 10
93.9149042748
 20
1453.9211322652
 30
0.0
 11
-576.0851198651
 21
1453.9211322652
 31
0.0
  0
LINE
  5
51
330
1F
100
AcDbEntity
  8
0
  6
Continuous
 62
     7
370
    15
100
AcDbLine
 10
-606.0851210572
 20
1453.9211322652
 30
0.0
 11
-609.4726243831
 21
1453.9211322652
 31
0.0
  0
LINE
  5
52
330
1F
100
AcDbEntity
  8
0
  6
Continuous
 62
     7
370
    15
100
AcDbLine
 10
-640.6976165093
 20
1453.9211322652
 30
0.0
 11
-689.0851218562
 21
1453.9211322652
 31
0.0
  0
LINE
  5
53
330
1F
100
AcDbEntity
  8
0
  6
Continuous
 62
     7
370
    15
100
AcDbLine
 10
-689.0851218562
 20
1428.92113003
 30
0.0
 11
-640.6976165093
 21
1428.92113003
 31
0.0
  0
LINE
  5
54
330
1F
100
AcDbEntity
  8
0
  6
Continuous
 62
     7
370
    15
100
AcDbLine
 10
-609.4726243831
 20
1428.92113003
 30
0.0
 11
-606.0851210572
 21
1428.92113003
 31
0.0
  0
LINE
  5
55
330
1F
100
AcDbEntity
  8
0
  6
Continuous
 62
     7
370
    15
100
AcDbLine
 10
-576.0851198651
 20
1428.92113003
 30
0.0
 11
93.9149042748
 21
1428.92113003
 31
0.0
  0
LINE
  5
56
330
1F
100
AcDbEntity
  8
0
  6
Continuous
 62
     7
370
    15
100
AcDbLine
 10
123.9148756646
 20
1428.92113003
 30
0.0
 11
1031.3024303101
 21
1428.92113003
 31
0.0
  0
LINE
  5
57
330
1F
100
AcDbEntity
  8
0
  6
Continuous
 62
     7
370
    15
100
AcDbLine
 10
1062.5273963593
 20
1428.92113003
 30
0.0
 11
1110.9149238251
 21
1428.92113003
 31
0.0
  0
ARC
  5
58
330
1F
100
AcDbEntity
  8
0
  6
Continuous
 62
     7
370
    15
100
AcDbCircle
 10
-689.0851219512
 20
1399.0211308585
 30
0.0
 40
2.000000000000227
100
AcDbArc
 50
90.0
 51
180.0
  0
ARC
  5
59
330
1F
100
AcDbEntity
  8
0
  6
Continuous
 62
     7
370
    15
100
AcDbCircle
 10
206.9148780488
 20
1399.0211308585
 30
0.0
 40
2.000000000000227
100
AcDbArc
 50
0.0
 51
90.0
  0
ARC
  5
5A
330
1F
100
AcDbEntity
  8
0
  6
Continuous
 62
     7
370
    15
100
AcDbCircle
 10
-689.0851219512
 20
-646.9788691415
 30
0.0
 40
2.0
100
AcDbArc
 50
180.0
 51
270.0
  0
ARC
  5
5B
330
1F
100
AcDbEntity
  8
0
  6
Continuous
 62
     7
370
    15
100
AcDbCircle
 10
206.9148780488
 20
-646.9788691415
 30
0.0
 40
2.0
100
AcDbArc
 50
270.0
 51
0.0
  0
LINE
  5
5C
330
1F
100
AcDbEntity
  8
0
  6
Continuous
 62
     7
370
    15
100
AcDbLine
 10
206.9148799561
 20
1401.0211308585
 30
0.0
 11
123.9148756646
 21
1401.0211308585
 31
0.0
  0
LINE
  5
5D
330
1F
100
AcDbEntity
  8
0
  6
Continuous
 62
     7
370
    15
100
AcDbLine
 10
93.9149042748
 20
1401.0211308585
 30
0.0
 11
-576.0851198651
 21
1401.0211308585
 31
0.0
  0
LINE
  5
5E
330
1F
100
AcDbEntity
  8
0
  6
Continuous
 62
     7
370
    15
100
AcDbLine
 10
-606.0851210572
 20
1401.0211308585
 30
0.0
 11
-689.0851218562
 21
1401.0211308585
 31
0.0
  0
LINE
  5
5F
330
1F
100
AcDbEntity
  8
0
  6
Continuous
 62
     7
370
    15
100
AcDbLine
 10
-691.0851219512
 20
1399.0211307635
 30
0.0
 11
-691.0851219512
 21
-646.9789664163
 31
0.0
  0
LINE
  5
60
330
1F
100
AcDbEntity
  8
0
  6
Continuous
 62
     7
370
    15
100
AcDbLine
 10
-689.0851218562
 20
-648.9788214578
 30
0.0
 11
148.9148518227
 21
-648.9788214578
 31
0.0
  0
LINE
  5
61
330
1F
100
AcDbEntity
  8
0
  6
Continuous
 62
     7
370
    15
100
AcDbLine
 10
188.9148732804
 20
-648.9788214578
 30
0.0
 11
206.9148799561
 21
-648.9788214578
 31
0.0
  0
LINE
  5
62
330
1F
100
AcDbEntity
  8
0
  6
Continuous
 62
     7
370
    15
100
AcDbLine
 10
208.9148542069
 20
-646.9789664163
 30
0.0
 11
208.9148542069
 21
1399.0211307635
 31
0.0
  0
CIRCLE
  5
63
330
1F
100
AcDbEntity
  8
0
  6
Continuous
 62
     7
370
    15
100
AcDbCircle
 10
-46.0851219512
 20
1441.4211308585
 30
0.0
 40
6.4499999999999
  0
CIRCLE
  5
64
330
1F
100
AcDbEntity
  8
0
  6
Continuous
 62
     7
370
    15
100
AcDbCircle
 10
-46.0851219512
 20
1441.4211308585
 30
0.0
 40
7.450000000000021
  0
LINE
  5
65
330
1F
100
AcDbEntity
  8
0
  6
Continuous
 62
     7
370
    15
100
AcDbLine
 10
-44.3170884467
 20
1439.1391729103
 30
0.0
 11
-43.2248929359
 21
1441.8113273667
 31
0.0
  0
LINE
  5
66
330
1F
100
AcDbEntity
  8
0
  6
Continuous
 62
     7
370
    15
100
AcDbLine
 10
-43.2248929359
 20
1441.8113273667
 30
0.0
 11
-44.9928859092
 21
1444.0932837413
 31
0.0
  0
LINE
  5
67
330
1F
100
AcDbEntity
  8
0
  6
Continuous
 62
     7
370
    15
100
AcDbLine
 10
-47.8531936027
 20
1443.7030856596
 30
0.0
 11
-48.9453891135
 21
1441.0309312032
 31
0.0
  0
LINE
  5
68
330
1F
100
AcDbEntity
  8
0
  6
Continuous
 62
     7
370
    15
100
AcDbLine
 10
-44.9928859092
 20
1444.0932837413
 30
0.0
 11
-47.8531936027
 21
1443.7030856596
 31
0.0
  0
LINE
  5
69
330
1F
100
AcDbEntity
  8
0
  6
Continuous
 62
     7
370
    15
100
AcDbLine
 10
-47.1773365356
 20
1438.7489748285
 30
0.0
 11
-44.3170884467
 21
1439.1391729103
 31
0.0
  0
LINE
  5
6A
330
1F
100
AcDbEntity
  8
0
  6
Continuous
 62
     7
370
    15
100
AcDbLine
 10
-48.9453891135
 20
1441.0309312032
 30
0.0
 11
-47.1773365356
 21
1438.7489748285
 31
0.0
  0
CIRCLE
  5
6B
330
1F
100
AcDbEntity
  8
0
  6
Continuous
 62
     7
370
    15
100
AcDbCircle
 10
980.9148780488
 20
1441.4211308585
 30
0.0
 40
6.450000000000079
  0
LINE
  5
6C
330
1F
100
AcDbEntity
  8
0
  6
Continuous
 62
     7
370
    15
100
AcDbLine
 10
982.0071241044
 20
1444.0932837413
 30
0.0
 11
979.1468164109
 21
1443.7030856596
 31
0.0
  0
LINE
  5
6D
330
1F
100
AcDbEntity
  8
0
  6
Continuous
 62
     7
370
    15
100
AcDbLine
 10
979.1468164109
 20
1443.7030856596
 30
0.0
 11
978.0546209
 21
1441.0309312032
 31
0.0
  0
LINE
  5
6E
330
1F
100
AcDbEntity
  8
0
  6
Continuous
 62
     7
370
    15
100
AcDbLine
 10
979.8226138734
 20
1438.7489748285
 30
0.0
 11
982.6829215668
 21
1439.1391729103
 31
0.0
  0
LINE
  5
6F
330
1F
100
AcDbEntity
  8
0
  6
Continuous
 62
     7
370
    15
100
AcDbLine
 10
982.6829215668
 20
1439.1391729103
 30
0.0
 11
983.7751170777
 21
1441.8113273667
 31
0.0
  0
LINE
  5
70
330
1F
100
AcDbEntity
  8
0
  6
Continuous
 62
     7
370
    15
100
AcDbLine
 10
983.7751170777
 20
1441.8113273667
 30
0.0
 11
982.0071241044
 21
1444.0932837413
 31
0.0
  0
LINE
  5
71
330
1F
100
AcDbEntity
  8
0
  6
Continuous
 62
     7
370
    15
100
AcDbLine
 10
978.0546209
 20
1441.0309312032
 30
0.0
 11
979.8226138734
 21
1438.7489748285
 31
0.0
  0
CIRCLE
  5
72
330
1F
100
AcDbEntity
  8
0
  6
Continuous
 62
     7
370
    15
100
AcDbCircle
 10
980.9148780488
 20
1441.4211308585
 30
0.0
 40
7.449999999999952
  0
CIRCLE
  5
73
330
1F
100
AcDbEntity
  8
0
  6
Continuous
 62
     7
370
    15
100
AcDbCircle
 10
467.9148780488
 20
1441.4211308585
 30
0.0
 40
6.449999999999804
  0
LINE
  5
74
330
1F
100
AcDbEntity
  8
0
  6
Continuous
 62
     7
370
    15
100
AcDbLine
 10
469.0071126603
 20
1444.0932837413
 30
0.0
 11
466.1468049668
 21
1443.7030856596
 31
0.0
  0
LINE
  5
75
330
1F
100
AcDbEntity
  8
0
  6
Continuous
 62
     7
370
    15
100
AcDbLine
 10
466.1468049668
 20
1443.7030856596
 30
0.0
 11
465.0546094559
 21
1441.0309312032
 31
0.0
  0
LINE
  5
76
330
1F
100
AcDbEntity
  8
0
  6
Continuous
 62
     7
370
    15
100
AcDbLine
 10
465.0546094559
 20
1441.0309312032
 30
0.0
 11
466.8227216386
 21
1438.7489748285
 31
0.0
  0
LINE
  5
77
330
1F
100
AcDbEntity
  8
0
  6
Continuous
 62
     7
370
    15
100
AcDbLine
 10
469.6829101228
 20
1439.1391729103
 30
0.0
 11
470.7751056336
 21
1441.8113273667
 31
0.0
  0
LINE
  5
78
330
1F
100
AcDbEntity
  8
0
  6
Continuous
 62
     7
370
    15
100
AcDbLine
 10
470.7751056336
 20
1441.8113273667
 30
0.0
 11
469.0071126603
 21
1444.0932837413
 31
0.0
  0
LINE
  5
79
330
1F
100
AcDbEntity
  8
0
  6
Continuous
 62
     7
370
    15
100
AcDbLine
 10
466.8227216386
 20
1438.7489748285
 30
0.0
 11
469.6829101228
 21
1439.1391729103
 31
0.0
  0
CIRCLE
  5
7A
330
1F
100
AcDbEntity
  8
0
  6
Continuous
 62
     7
370
    15
100
AcDbCircle
 10
467.9148780488
 20
1441.4211308585
 30
0.0
 40
7.450000000000043
  0
CIRCLE
  5
7B
330
1F
100
AcDbEntity
  8
0
  6
Continuous
 62
     7
370
    15
100
AcDbCircle
 10
-559.0851219512
 20
1441.4211308585
 30
0.0
 40
6.45000000000017
  0
CIRCLE
  5
7C
330
1F
100
AcDbEntity
  8
0
  6
Continuous
 62
     7
370
    15
100
AcDbCircle
 10
-559.0851219512
 20
1441.4211308585
 30
0.0
 40
7.450000000000318
  0
LINE
  5
7D
330
1F
100
AcDbEntity
  8
0
  6
Continuous
 62
     7
370
    15
100
AcDbLine
 10
-557.9929122545
 20
1444.0932837413
 30
0.0
 11
-560.8531752444
 21
1443.7030856596
 31
0.0
  0
LINE
  5
7E
330
1F
100
AcDbEntity
  8
0
  6
Continuous
 62
     7
370
    15
100
AcDbLine
 10
-560.1773330785
 20
1438.7489748285
 30
0.0
 11
-557.3170700885
 21
1439.1391729103
 31
0.0
  0
LINE
  5
7F
330
1F
100
AcDbEntity
  8
0
  6
Continuous
 62
     7
370
    15
100
AcDbLine
 10
-561.9453856565
 20
1441.0309312032
 30
0.0
 11
-560.1773330785
 21
1438.7489748285
 31
0.0
  0
LINE
  5
80
330
1F
100
AcDbEntity
  8
0
  6
Continuous
 62
     7
370
    15
100
AcDbLine
 10
-557.3170700885
 20
1439.1391729103
 30
0.0
 11
-556.2248596765
 21
1441.8113273667
 31
0.0
  0
LINE
  5
81
330
1F
100
AcDbEntity
  8
0
  6
Continuous
 62
     7
370
    15
100
AcDbLine
 10
-556.2248596765
 20
1441.8113273667
 30
0.0
 11
-557.9929122545
 21
1444.0932837413
 31
0.0
  0
LINE
  5
82
330
1F
100
AcDbEntity
  8
0
  6
Continuous
 62
     7
370
    15
100
AcDbLine
 10
-560.8531752444
 20
1443.7030856596
 30
0.0
 11
-561.9453856565
 21
1441.0309312032
 31
0.0
  0
LINE
  5
83
330
1F
100
AcDbEntity
  8
0
  6
Continuous
 62
     7
370
    15
100
AcDbLine
 10
1048.7057944917
 20
1439.9630394862
 30
0.0
 11
1046.5476295136
 21
1439.1411249624
 31
0.0
  0
LINE
  5
84
330
1F
100
AcDbEntity
  8
0
  6
Continuous
 62
     7
370
    15
100
AcDbLine
 10
1049.0730783128
 20
1442.243047534
 30
0.0
 11
1048.7057944917
 21
1439.9630394862
 31
0.0
  0
LINE
  5
85
330
1F
100
AcDbEntity
  8
0
  6
Continuous
 62
     7
370
    15
100
AcDbLine
 10
1044.7566291474
 20
1440.5992147611
 30
0.0
 11
1046.5476295136
 21
1439.1411249624
 31
0.0
  0
LINE
  5
86
330
1F
100
AcDbEntity
  8
0
  6
Continuous
 62
     7
370
    15
100
AcDbLine
 10
1045.1240321778
 20
1442.8792228089
 30
0.0
 11
1044.7566291474
 21
1440.5992147611
 31
0.0
  0
LINE
  5
87
330
1F
100
AcDbEntity
  8
0
  6
Continuous
 62
     7
370
    15
100
AcDbLine
 10
1045.1240321778
 20
1442.8792228089
 30
0.0
 11
1047.2821971558
 21
1443.7011373327
 31
0.0
  0
LINE
  5
88
330
1F
100
AcDbEntity
  8
0
  6
Continuous
 62
     7
370
    15
100
AcDbLine
 10
1049.0730783128
 20
1442.243047534
 30
0.0
 11
1047.2821971558
 21
1443.7011373327
 31
0.0
  0
LINE
  5
89
330
1F
100
AcDbEntity
  8
0
  6
Continuous
 62
     7
370
    15
100
AcDbLine
 10
-623.2942262508
 20
1439.9630394862
 30
0.0
 11
-625.4524210311
 21
1439.1411249624
 31
0.0
  0
LINE
  5
8A
330
1F
100
AcDbEntity
  8
0
  6
Continuous
 62
     7
370
    15
100
AcDbLine
 10
-626.8760183669
 20
1442.8792228089
 30
0.0
 11
-624.7178235866
 21
1443.7011373327
 31
0.0
  0
LINE
  5
8B
330
1F
100
AcDbEntity
  8
0
  6
Continuous
 62
     7
370
    15
100
AcDbLine
 10
-622.9269275285
 20
1442.243047534
 30
0.0
 11
-623.2942262508
 21
1439.9630394862
 31
0.0
  0
LINE
  5
8C
330
1F
100
AcDbEntity
  8
0
  6
Continuous
 62
     7
370
    15
100
AcDbLine
 10
-626.8760183669
 20
1442.8792228089
 30
0.0
 11
-627.2433096386
 21
1440.5992147611
 31
0.0
  0
LINE
  5
8D
330
1F
100
AcDbEntity
  8
0
  6
Continuous
 62
     7
370
    15
100
AcDbLine
 10
-622.9269275285
 20
1442.243047534
 30
0.0
 11
-624.7178235866
 21
1443.7011373327
 31
0.0
  0
LINE
  5
8E
330
1F
100
AcDbEntity
  8
0
  6
Continuous
 62
     7
370
    15
100
AcDbLine
 10
-627.2433096386
 20
1440.5992147611
 30
0.0
 11
-625.4524210311
 21
1439.1411249624
 31
0.0
  0
CIRCLE
  5
8F
330
1F
100
AcDbEntity
  8
0
  6
Continuous
 62
     7
370
    15
100
AcDbCircle
 10
1046.9148780488
 20
1441.4211308585
 30
0.0
 40
19.99999999999976
  0
CIRCLE
  5
90
330
1F
100
AcDbEntity
  8
0
  6
Continuous
 62
     7
370
    15
100
AcDbCircle
 10
-625.0851219512
 20
1441.4211308585
 30
0.0
 40
19.99999999999993
  0
ARC
  5
91
330
1F
100
AcDbEntity
  8
0
  6
Continuous
 62
     7
370
    15
100
AcDbCircle
 10
-46.0851219512
 20
1441.4211308585
 30
0.0
 40
23.99999999999989
100
AcDbArc
 50
31.3881664643
 51
148.6118335357
  0
ARC
  5
92
330
1F
100
AcDbEntity
  8
0
  6
Continuous
 62
     7
370
    15
100
AcDbCircle
 10
-46.0851219512
 20
1441.4211308585
 30
0.0
 40
24.0
100
AcDbArc
 50
211.3881664643
 51
328.6118335357
  0
ARC
  5
93
330
1F
100
AcDbEntity
  8
0
  6
Continuous
 62
     7
370
    15
100
AcDbCircle
 10
-46.0851219512
 20
1441.4211308585
 30
0.0
 40
25.0
100
AcDbArc
 50
210.0
 51
330.0
  0
ARC
  5
94
330
1F
100
AcDbEntity
  8
0
  6
Continuous
 62
     7
370
    15
100
AcDbCircle
 10
-46.0851219512
 20
1441.4211308585
 30
0.0
 40
24.99999999999988
100
AcDbArc
 50
30.0
 51
150.0
  0
ARC
  5
95
330
1F
100
AcDbEntity
  8
0
  6
Continuous
 62
     7
370
    15
100
AcDbCircle
 10
980.9148780488
 20
1441.4211308585
 30
0.0
 40
24.00000000000018
100
AcDbArc
 50
31.3881664643
 51
148.6118335357
  0
ARC
  5
96
330
1F
100
AcDbEntity
  8
0
  6
Continuous
 62
     7
370
    15
100
AcDbCircle
 10
980.9148780488
 20
1441.4211308585
 30
0.0
 40
23.99999999999983
100
AcDbArc
 50
211.3881664643
 51
328.6118335357
  0
ARC
  5
97
330
1F
100
AcDbEntity
  8
0
  6
Continuous
 62
     7
370
    15
100
AcDbCircle
 10
980.9148780488
 20
1441.4211308585
 30
0.0
 40
24.99999999999985
100
AcDbArc
 50
210.0
 51
330.0
  0
ARC
  5
98
330
1F
100
AcDbEntity
  8
0
  6
Continuous
 62
     7
370
    15
100
AcDbCircle
 10
980.9148780488
 20
1441.4211308585
 30
0.0
 40
25.0000000000002
100
AcDbArc
 50
30.0
 51
150.0
  0
ARC
  5
99
330
1F
100
AcDbEntity
  8
0
  6
Continuous
 62
     7
370
    15
100
AcDbCircle
 10
-559.0851219512
 20
1441.4211308585
 30
0.0
 40
24.00000000000036
100
AcDbArc
 50
31.3881664643
 51
108.8005444417
  0
ARC
  5
9A
330
1F
100
AcDbEntity
  8
0
  6
Continuous
 62
     7
370
    15
100
AcDbCircle
 10
-559.0851219512
 20
1441.4211308585
 30
0.0
 40
23.99999999999983
100
AcDbArc
 50
224.9005279607
 51
328.6118335357
  0
ARC
  5
9B
330
1F
100
AcDbEntity
  8
0
  6
Continuous
 62
     7
370
    15
100
AcDbCircle
 10
-559.0851219512
 20
1441.4211308585
 30
0.0
 40
24.99999999999976
100
AcDbArc
 50
227.1563569564
 51
330.0
  0
ARC
  5
9C
330
1F
100
AcDbEntity
  8
0
  6
Continuous
 62
     7
370
    15
100
AcDbCircle
 10
-559.0851219512
 20
1441.4211308585
 30
0.0
 40
25.00000000000018
100
AcDbArc
 50
30.0
 51
106.0973005297
  0
ARC
  5
9D
330
1F
100
AcDbEntity
  8
0
  6
Continuous
 62
     7
370
    15
100
AcDbCircle
 10
467.9148780488
 20
1441.4211308585
 30
0.0
 40
24.00000000000013
100
AcDbArc
 50
31.3881664643
 51
148.6118335357
  0
ARC
  5
9E
330
1F
100
AcDbEntity
  8
0
  6
Continuous
 62
     7
370
    15
100
AcDbCircle
 10
467.9148780488
 20
1441.4211308585
 30
0.0
 40
23.9999999999999
100
AcDbArc
 50
211.3881664643
 51
328.6118335357
  0
ARC
  5
9F
330
1F
100
AcDbEntity
  8
0
  6
Continuous
 62
     7
370
    15
100
AcDbCircle
 10
467.9148780488
 20
1441.4211308585
 30
0.0
 40
24.99999999999997
100
AcDbArc
 50
210.0
 51
330.0
  0
ARC
  5
A0
330
1F
100
AcDbEntity
  8
0
  6
Continuous
 62
     7
370
    15
100
AcDbCircle
 10
467.9148780488
 20
1441.4211308585
 30
0.0
 40
25.0
100
AcDbArc
 50
30.0
 51
150.0
  0
LINE
  5
A1
330
1F
100
AcDbEntity
  8
0
  6
Continuous
 62
     7
370
    15
100
AcDbLine
 10
1112.7148648881
 20
1428.92113003
 30
0.0
 11
1112.7148648881
 21
1453.9211322652
 31
0.0
  0
LINE
  5
A2
330
1F
100
AcDbEntity
  8
0
  6
Continuous
 62
     7
370
    15
100
AcDbLine
 10
1112.9148980759
 20
1453.7211326049
 30
0.0
 11
1112.9148980759
 21
1429.1211315529
 31
0.0
  0
LINE
  5
A3
330
1F
100
AcDbEntity
  8
0
  6
Continuous
 62
     7
370
    15
100
AcDbLine
 10
1111.1148378037
 20
1453.9211322652
 30
0.0
 11
1111.1148378037
 21
1428.92113003
 31
0.0
  0
LINE
  5
A4
330
1F
100
AcDbEntity
  8
0
  6
Continuous
 62
     7
370
    15
100
AcDbLine
 10
-690.8851219563
 20
1453.9211322652
 30
0.0
 11
-690.8851219563
 21
1428.92113003
 31
0.0
  0
LINE
  5
A5
330
1F
100
AcDbEntity
  8
0
  6
Continuous
 62
     7
370
    15
100
AcDbLine
 10
-691.0851219512
 20
1429.1211315529
 30
0.0
 11
-691.0851219512
 21
1453.7211326049
 31
0.0
  0
LINE
  5
A6
330
1F
100
AcDbEntity
  8
0
  6
Continuous
 62
     7
370
    15
100
AcDbLine
 10
-689.2851219821
 20
1428.92113003
 30
0.0
 11
-689.2851219821
 21
1453.9211322652
 31
0.0
  0
LINE
  5
A7
330
1F
100
AcDbEntity
  8
0
  6
Continuous
 62
     7
370
    15
100
AcDbLine
 10
-689.0851218562
 20
1441.4211292849
 30
0.0
 11
-689.0851218562
 21
1453.9211322652
 31
0.0
  0
LINE
  5
A8
330
1F
100
AcDbEntity
  8
0
  6
Continuous
 62
     7
370
    15
100
AcDbLine
 10
-689.0851218562
 20
1428.92113003
 30
0.0
 11
-689.0851218562
 21
1441.4211292849
 31
0.0
  0
SPLINE
  5
A9
330
1F
100
AcDbEntity
  8
0
  6
Continuous
 62
     7
370
    15
100
AcDbSpline
210
0.0
220
0.0
230
1.0
 70
    11
 71
     3
 72
    28
 73
    24
 74
     0
 42
0.00000001
 43
0.00000001
 40
0.0
 40
0.0
 40
0.0
 40
0.0
 40
0.0475551085890468
 40
0.0949663683926019
 40
0.1460694132410154
 40
0.2034572476244318
 40
0.2467855184045673
 40
0.2901854357699716
 40
0.3330337540003755
 40
0.3834831317651988
 40
0.441092377931357
 40
0.4950486814856493
 40
0.5415905096130255
 40
0.5869407808360846
 40
0.6370246492094731
 40
0.6937085463485646
 40
0.7381338757213403
 40
0.7826954006588828
 40
0.8249694594643773
 40
0.8737310897145885
 40
0.930692279102524
 40
0.98601878224417
 40
1.0
 40
1.0
 40
1.0
 40
1.0
 10
-551.5351215220663
 20
1441.42112928492
 30
0.0
 10
-551.6050915088045
 20
1440.64833153231
 30
0.0
 10
-551.7448198310428
 20
1439.105073652246
 30
0.0
 10
-552.8177438673611
 20
1437.019368065663
 30
0.0
 10
-554.472114219625
 20
1435.268081584627
 30
0.0
 10
-556.6001880323751
 20
1434.154514398869
 30
0.0
 10
-558.9256455210179
 20
1433.772038011775
 30
0.0
 10
-561.0403911149008
 20
1434.029918811977
 30
0.0
 10
-563.0355652638071
 20
1434.865740306513
 30
0.0
 10
-564.8516068610815
 20
1436.337013311592
 30
0.0
 10
-566.222108782833
 20
1438.506681369943
 30
0.0
 10
-566.762363139965
 20
1441.056394798022
 30
0.0
 10
-566.4735394677793
 20
1443.440374708406
 30
0.0
 10
-565.5580069810811
 20
1445.517989608962
 30
0.0
 10
-564.0174601809271
 20
1447.312764268464
 30
0.0
 10
-561.983103455702
 20
1448.531458001284
 30
0.0
 10
-559.6743432163128
 20
1449.054256289216
 30
0.0
 10
-557.5107346507206
 20
1448.905456699431
 30
0.0
 10
-555.4806172021152
 20
1448.168381561503
 30
0.0
 10
-553.6214243443635
 20
1446.820707316633
 30
0.0
 10
-552.1457705842042
 20
1444.769045395407
 30
0.0
 10
-551.5727133164203
 20
1442.768327430539
 30
0.0
 10
-551.5414318325493
 20
1441.647275408747
 30
0.0
 10
-551.5351215220663
 20
1441.42112928492
 30
0.0
  0
SPLINE
  5
AA
330
1F
100
AcDbEntity
  8
0
  6
Continuous
 62
     7
370
    15
100
AcDbSpline
210
0.0
220
0.0
230
1.0
 70
    11
 71
     3
 72
    28
 73
    24
 74
     0
 42
0.00000001
 43
0.00000001
 40
0.0
 40
0.0
 40
0.0
 40
0.0
 40
0.0475550326092218
 40
0.0949664403127564
 40
0.1460697044387793
 40
0.2034570347634494
 40
0.2467859234440764
 40
0.2901858564257351
 40
0.333033639928336
 40
0.3834832625161864
 40
0.4410922170529061
 40
0.4950485710047133
 40
0.5415903797806394
 40
0.5869404880252767
 40
0.6370247542775912
 40
0.6937086718128083
 40
0.7381343134127695
 40
0.7826955483699719
 40
0.824969622386612
 40
0.8737310334434398
 40
0.930692414027558
 40
0.9860187772134172
 40
1.0
 40
1.0
 40
1.0
 40
1.0
 10
-38.53513988029686
 20
1441.42112928492
 30
0.0
 10
-38.60509642000262
 20
1440.648330818371
 30
0.0
 10
-38.74479821785534
 20
1439.105067878139
 30
0.0
 10
-39.81775146807873
 20
1437.019366424243
 30
0.0
 10
-41.47212793211361
 20
1435.268094820043
 30
0.0
 10
-43.60019079903307
 20
1434.154502710469
 30
0.0
 10
-45.92565431733173
 20
1433.772041673017
 30
0.0
 10
-48.0404036341476
 20
1434.029911710523
 30
0.0
 10
-50.03555786651723
 20
1434.865754054526
 30
0.0
 10
-51.85161588579587
 20
1436.336998975594
 30
0.0
 10
-53.22207379369701
 20
1438.50669235547
 30
0.0
 10
-53.76234452818171
 20
1441.056392616044
 30
0.0
 10
-53.47353157230081
 20
1443.440369489285
 30
0.0
 10
-52.55803330403283
 20
1445.518004304832
 30
0.0
 10
-51.01744330142552
 20
1447.312753917286
 30
0.0
 10
-48.98309064066483
 20
1448.531462533192
 30
0.0
 10
-46.67432533612267
 20
1449.054254632051
 30
0.0
 10
-44.51071971125173
 20
1448.905454824899
 30
0.0
 10
-42.48060588210553
 20
1448.168385526844
 30
0.0
 10
-40.62143216836741
 20
1446.820697298854
 30
0.0
 10
-39.14574472396479
 20
1444.769056450748
 30
0.0
 10
-38.57273374955392
 20
1442.76832417708
 30
0.0
 10
-38.54145055119382
 20
1441.647275296669
 30
0.0
 10
-38.53513988029686
 20
1441.42112928492
 30
0.0
  0
LINE
  5
AB
330
1F
100
AcDbEntity
  8
0
  6
Continuous
 62
     7
370
    15
100
AcDbLine
 10
1110.9149238251
 20
1441.4211292849
 30
0.0
 11
1110.9149238251
 21
1453.9211322652
 31
0.0
  0
LINE
  5
AC
330
1F
100
AcDbEntity
  8
0
  6
Continuous
 62
     7
370
    15
100
AcDbLine
 10
1110.9149238251
 20
1428.92113003
 30
0.0
 11
1110.9149238251
 21
1441.4211292849
 31
0.0
  0
SPLINE
  5
AD
330
1F
100
AcDbEntity
  8
0
  6
Continuous
 62
     7
370
    15
100
AcDbSpline
210
0.0
220
0.0
230
1.0
 70
    11
 71
     3
 72
    28
 73
    24
 74
     0
 42
0.00000001
 43
0.00000001
 40
0.0
 40
0.0
 40
0.0
 40
0.0
 40
0.0475553479052548
 40
0.0949666986664316
 40
0.1460690978649835
 40
0.2034574086827914
 40
0.2467838360890965
 40
0.2901849320046224
 40
0.3330337643374772
 40
0.3834824196593059
 40
0.4410919297272977
 40
0.4950482188760931
 40
0.5415899717540726
 40
0.5869405036641598
 40
0.6370239500542304
 40
0.6937077995105594
 40
0.7381345727220554
 40
0.7826957541600331
 40
0.8249697774043893
 40
0.8737311298974696
 40
0.9306924420694592
 40
0.9860187388068893
 40
1.0
 40
1.0
 40
1.0
 40
1.0
 10
988.4649297379282
 20
1441.42112928492
 30
0.0
 10
988.3949245445663
 20
1440.648331424921
 30
0.0
 10
988.2551261329066
 20
1439.10507572954
 30
0.0
 10
987.1822024540681
 20
1437.019386340726
 30
0.0
 10
985.5278765999735
 20
1435.268057743112
 30
0.0
 10
983.399802539748
 20
1434.15453742091
 30
0.0
 10
981.0743586461383
 20
1433.772032074379
 30
0.0
 10
978.9596131934782
 20
1434.02992012187
 30
0.0
 10
976.9644029986058
 20
1434.865719279163
 30
0.0
 10
975.1484063534441
 20
1436.337038444474
 30
0.0
 10
973.7778589841928
 20
1438.506671698161
 30
0.0
 10
973.2376164594607
 20
1441.056392165223
 30
0.0
 10
973.5263979284891
 20
1443.440386077748
 30
0.0
 10
974.4419993356397
 20
1445.517971193628
 30
0.0
 10
975.9824941323965
 20
1447.312774148408
 30
0.0
 10
978.016879633709
 20
1448.531472697609
 30
0.0
 10
980.3256658802791
 20
1449.054250618664
 30
0.0
 10
982.4892897619603
 20
1448.905456157001
 30
0.0
 10
984.5194056096474
 20
1448.168385178591
 30
0.0
 10
986.3785711106084
 20
1446.820697135983
 30
0.0
 10
987.8542945859737
 20
1444.769057729486
 30
0.0
 10
988.4272044409495
 20
1442.768320059609
 30
0.0
 10
988.4585969883923
 20
1441.647275198574
 30
0.0
 10
988.4649297379282
 20
1441.42112928492
 30
0.0
  0
SPLINE
  5
AE
330
1F
100
AcDbEntity
  8
0
  6
Continuous
 62
     7
370
    15
100
AcDbSpline
210
0.0
220
0.0
230
1.0
 70
    11
 71
     3
 72
    28
 73
    24
 74
     0
 42
0.00000001
 43
0.00000001
 40
0.0
 40
0.0
 40
0.0
 40
0.0
 40
0.0475553479052548
 40
0.0949666986664316
 40
0.1460690978649835
 40
0.2034574086827914
 40
0.2467838360890965
 40
0.2901849320046224
 40
0.3330337643374772
 40
0.3834824196593059
 40
0.4410919297272977
 40
0.4950482188760931
 40
0.5415899717540726
 40
0.5869405036641598
 40
0.6370239500542304
 40
0.6937077995105594
 40
0.7381345727220554
 40
0.7826957541600331
 40
0.8249697774043893
 40
0.8737311298974696
 40
0.9306924420694592
 40
0.9860187388068893
 40
1.0
 40
1.0
 40
1.0
 40
1.0
 10
475.4649182938364
 20
1441.42112928492
 30
0.0
 10
475.3949131004744
 20
1440.648331424921
 30
0.0
 10
475.2551146888147
 20
1439.10507572954
 30
0.0
 10
474.1821910099766
 20
1437.019386340726
 30
0.0
 10
472.5278651558815
 20
1435.268057743112
 30
0.0
 10
470.3997910956561
 20
1434.15453742091
 30
0.0
 10
468.0743472020466
 20
1433.772032074379
 30
0.0
 10
465.9596017493863
 20
1434.02992012187
 30
0.0
 10
463.964391554514
 20
1434.865719279163
 30
0.0
 10
462.1483949093523
 20
1436.337038444474
 30
0.0
 10
460.7778475401012
 20
1438.506671698161
 30
0.0
 10
460.2376050153685
 20
1441.056392165223
 30
0.0
 10
460.5263864843976
 20
1443.440386077748
 30
0.0
 10
461.4419878915477
 20
1445.517971193628
 30
0.0
 10
462.9824826883045
 20
1447.312774148408
 30
0.0
 10
465.0168681896172
 20
1448.531472697609
 30
0.0
 10
467.3256544361872
 20
1449.054250618664
 30
0.0
 10
469.4892783178684
 20
1448.905456157001
 30
0.0
 10
471.5193941655558
 20
1448.168385178591
 30
0.0
 10
473.3785596665168
 20
1446.820697135983
 30
0.0
 10
474.8542831418812
 20
1444.769057729486
 30
0.0
 10
475.4271929968583
 20
1442.768320059609
 30
0.0
 10
475.4585855443003
 20
1441.647275198574
 30
0.0
 10
475.4649182938364
 20
1441.42112928492
 30
0.0
  0
ARC
  5
AF
330
1F
100
AcDbEntity
  8
0
  6
Continuous
 62
     7
370
    15
100
AcDbCircle
 10
151.4148780488
 20
-639.4788691415
 30
0.0
 40
2.300000000000068
100
AcDbArc
 50
90.0
 51
180.0
  0
LINE
  5
B0
330
1F
100
AcDbEntity
  8
0
  6
Continuous
 62
     7
370
    15
100
AcDbLine
 10
149.1148850106
 20
-639.4787947549
 30
0.0
 11
148.9148518227
 21
-639.4787947549
 31
0.0
  0
ARC
  5
B1
330
1F
100
AcDbEntity
  8
0
  6
Continuous
 62
     7
370
    15
100
AcDbCircle
 10
151.4148780488
 20
-639.4788691415
 30
0.0
 40
2.500000000000057
100
AcDbArc
 50
90.0
 51
180.0
  0
LINE
  5
B2
330
1F
100
AcDbEntity
  8
0
  6
Continuous
 62
     7
370
    15
100
AcDbLine
 10
151.4148494386
 20
-637.1787707223
 30
0.0
 11
151.4148494386
 21
-636.978975953
 31
0.0
  0
LINE
  5
B3
330
1F
100
AcDbEntity
  8
0
  6
Continuous
 62
     7
370
    15
100
AcDbLine
 10
188.7148996972
 20
-656.7789236917
 30
0.0
 11
188.7148996972
 21
-639.4787947549
 31
0.0
  0
LINE
  5
B4
330
1F
100
AcDbEntity
  8
0
  6
Continuous
 62
     7
370
    15
100
AcDbLine
 10
188.7148996972
 20
-639.4787947549
 30
0.0
 11
188.9148732804
 21
-639.4787947549
 31
0.0
  0
LINE
  5
B5
330
1F
100
AcDbEntity
  8
0
  6
Continuous
 62
     7
370
    15
100
AcDbLine
 10
188.9148732804
 20
-639.4787947549
 30
0.0
 11
188.9148732804
 21
-656.7789236917
 31
0.0
  0
LINE
  5
B6
330
1F
100
AcDbEntity
  8
0
  6
Continuous
 62
     7
370
    15
100
AcDbLine
 10
188.9148732804
 20
-656.7789236917
 30
0.0
 11
188.7148996972
 21
-656.7789236917
 31
0.0
  0
LINE
  5
B7
330
1F
100
AcDbEntity
  8
0
  6
Continuous
 62
     7
370
    15
100
AcDbLine
 10
186.4148756646
 20
-637.1787707223
 30
0.0
 11
151.4148494386
 21
-637.1787707223
 31
0.0
  0
LINE
  5
B8
330
1F
100
AcDbEntity
  8
0
  6
Continuous
 62
     7
370
    15
100
AcDbLine
 10
151.4148494386
 20
-636.978975953
 30
0.0
 11
186.4148756646
 21
-636.978975953
 31
0.0
  0
LINE
  5
B9
330
1F
100
AcDbEntity
  8
0
  6
Continuous
 62
     7
370
    15
100
AcDbLine
 10
186.4148756646
 20
-637.1787707223
 30
0.0
 11
186.4148756646
 21
-636.978975953
 31
0.0
  0
LINE
  5
BA
330
1F
100
AcDbEntity
  8
0
  6
Continuous
 62
     7
370
    15
100
AcDbLine
 10
149.1148850106
 20
-639.4787947549
 30
0.0
 11
149.1148850106
 21
-656.7789236917
 31
0.0
  0
LINE
  5
BB
330
1F
100
AcDbEntity
  8
0
  6
Continuous
 62
     7
370
    15
100
AcDbLine
 10
148.9148518227
 20
-656.7789236917
 30
0.0
 11
149.1148850106
 21
-656.7789236917
 31
0.0
  0
LINE
  5
BC
330
1F
100
AcDbEntity
  8
0
  6
Continuous
 62
     7
370
    15
100
AcDbLine
 10
148.9148518227
 20
-656.7789236917
 30
0.0
 11
148.9148518227
 21
-639.4787947549
 31
0.0
  0
ARC
  5
BD
330
1F
100
AcDbEntity
  8
0
  6
Continuous
 62
     7
370
    15
100
AcDbCircle
 10
186.4148780488
 20
-639.4788691415
 30
0.0
 40
2.300000000000068
100
AcDbArc
 50
0.0
 51
90.0
  0
ARC
  5
BE
330
1F
100
AcDbEntity
  8
0
  6
Continuous
 62
     7
370
    15
100
AcDbCircle
 10
186.4148780488
 20
-639.4788691415
 30
0.0
 40
2.500000000000057
100
AcDbArc
 50
0.0
 51
90.0
  0
LINE
  5
BF
330
1F
100
AcDbEntity
  8
0
  6
Continuous
 62
     7
370
    15
100
AcDbLine
 10
149.1148850106
 20
-656.7789236917
 30
0.0
 11
188.7148996972
 21
-656.7789236917
 31
0.0
  0
LINE
  5
C0
330
1F
100
AcDbEntity
  8
0
  6
Continuous
 62
     7
370
    15
100
AcDbLine
 10
149.1148850106
 20
-656.9789568796
 30
0.0
 11
149.1148850106
 21
-656.7789236917
 31
0.0
  0
LINE
  5
C1
330
1F
100
AcDbEntity
  8
0
  6
Continuous
 62
     7
370
    15
100
AcDbLine
 10
148.9148518227
 20
-656.7789236917
 30
0.0
 11
149.1148850106
 21
-656.9789568796
 31
0.0
  0
LINE
  5
C2
330
1F
100
AcDbEntity
  8
0
  6
Continuous
 62
     7
370
    15
100
AcDbLine
 10
188.7148996972
 20
-656.9789568796
 30
0.0
 11
149.1148850106
 21
-656.9789568796
 31
0.0
  0
LINE
  5
C3
330
1F
100
AcDbEntity
  8
0
  6
Continuous
 62
     7
370
    15
100
AcDbLine
 10
188.7148996972
 20
-656.9789568796
 30
0.0
 11
188.7148996972
 21
-656.7789236917
 31
0.0
  0
LINE
  5
C4
330
1F
100
AcDbEntity
  8
0
  6
Continuous
 62
     7
370
    15
100
AcDbLine
 10
188.7148996972
 20
-656.9789568796
 30
0.0
 11
188.9148732804
 21
-656.7789236917
 31
0.0
  0
LINE
  5
C5
330
1F
100
AcDbEntity
  8
0
  6
Continuous
 62
     7
370
    15
100
AcDbLine
 10
-589.0773231007
 20
1343.9309452758
 30
0.0
 11
-591.8913775898
 21
1343.2372328923
 31
0.0
  0
LINE
  5
C6
330
1F
100
AcDbEntity
  8
0
  6
Continuous
 62
     7
370
    15
100
AcDbLine
 10
-588.271065972
 20
1346.71484354
 30
0.0
 11
-589.0773231007
 21
1343.9309452758
 31
0.0
  0
LINE
  5
C7
330
1F
100
AcDbEntity
  8
0
  6
Continuous
 62
     7
370
    15
100
AcDbLine
 10
-590.2788633324
 20
1348.8050294207
 30
0.0
 11
-588.271065972
 21
1346.71484354
 31
0.0
  0
LINE
  5
C8
330
1F
100
AcDbEntity
  8
0
  6
Continuous
 62
     7
370
    15
100
AcDbLine
 10
-593.0929178215
 20
1348.1113170372
 30
0.0
 11
-590.2788633324
 21
1348.8050294207
 31
0.0
  0
LINE
  5
C9
330
1F
100
AcDbEntity
  8
0
  6
Continuous
 62
     7
370
    15
100
AcDbLine
 10
-593.8991749502
 20
1345.327418773
 30
0.0
 11
-593.0929178215
 21
1348.1113170372
 31
0.0
  0
LINE
  5
CA
330
1F
100
AcDbEntity
  8
0
  6
Continuous
 62
     7
370
    15
100
AcDbLine
 10
-591.8913775898
 20
1343.2372328923
 30
0.0
 11
-593.8991749502
 21
1345.327418773
 31
0.0
  0
CIRCLE
  5
CB
330
1F
100
AcDbEntity
  8
0
  6
Continuous
 62
     7
370
    15
100
AcDbCircle
 10
-591.0851219512
 20
1346.0211308585
 30
0.0
 40
7.784999999999934
  0
ARC
  5
CC
330
1F
100
AcDbEntity
  8
0
  6
Continuous
 62
     7
370
    15
100
AcDbCircle
 10
-591.0851219512
 20
1346.0211308585
 30
0.0
 40
2.510000000000027
100
AcDbArc
 50
223.8482527894
 51
283.8482527894
  0
ARC
  5
CD
330
1F
100
AcDbEntity
  8
0
  6
Continuous
 62
     7
370
    15
100
AcDbCircle
 10
-591.0851219512
 20
1346.0211308585
 30
0.0
 40
2.509999999999956
100
AcDbArc
 50
163.8482527894
 51
223.8482527894
  0
ARC
  5
CE
330
1F
100
AcDbEntity
  8
0
  6
Continuous
 62
     7
370
    15
100
AcDbCircle
 10
-591.0851219512
 20
1346.0211308585
 30
0.0
 40
2.510000000000027
100
AcDbArc
 50
103.8482527894
 51
163.8482527894
  0
ARC
  5
CF
330
1F
100
AcDbEntity
  8
0
  6
Continuous
 62
     7
370
    15
100
AcDbCircle
 10
-591.0851219512
 20
1346.0211308585
 30
0.0
 40
2.510000000000099
100
AcDbArc
 50
43.8482527894
 51
103.8482527894
  0
ARC
  5
D0
330
1F
100
AcDbEntity
  8
0
  6
Continuous
 62
     7
370
    15
100
AcDbCircle
 10
-591.0851219512
 20
1346.0211308585
 30
0.0
 40
2.510000000000099
100
AcDbArc
 50
343.8482527894
 51
43.8482527894
  0
ARC
  5
D1
330
1F
100
AcDbEntity
  8
0
  6
Continuous
 62
     7
370
    15
100
AcDbCircle
 10
-591.0851219512
 20
1346.0211308585
 30
0.0
 40
2.510000000000027
100
AcDbArc
 50
283.8482527894
 51
343.8482527894
  0
LINE
  5
D2
330
1F
100
AcDbEntity
  8
0
  6
Continuous
 62
     7
370
    15
100
AcDbLine
 10
-588.5752210237
 20
1292.4704556451
 30
0.0
 11
-588.575019858
 21
1289.5721574412
 31
0.0
  0
LINE
  5
D3
330
1F
100
AcDbEntity
  8
0
  6
Continuous
 62
     7
370
    15
100
AcDbLine
 10
-591.0853290774
 20
1293.9194296585
 30
0.0
 11
-588.5752210237
 21
1292.4704556451
 31
0.0
  0
LINE
  5
D4
330
1F
100
AcDbEntity
  8
0
  6
Continuous
 62
     7
370
    15
100
AcDbLine
 10
-593.5952210642
 20
1292.4701054679
 30
0.0
 11
-591.0853290774
 21
1293.9194296585
 31
0.0
  0
LINE
  5
D5
330
1F
100
AcDbEntity
  8
0
  6
Continuous
 62
     7
370
    15
100
AcDbLine
 10
-593.5950198985
 20
1289.5718072639
 30
0.0
 11
-593.5952210642
 21
1292.4701054679
 31
0.0
  0
LINE
  5
D6
330
1F
100
AcDbEntity
  8
0
  6
Continuous
 62
     7
370
    15
100
AcDbLine
 10
-591.0849192954
 20
1288.1228332506
 30
0.0
 11
-593.5950198985
 21
1289.5718072639
 31
0.0
  0
LINE
  5
D7
330
1F
100
AcDbEntity
  8
0
  6
Continuous
 62
     7
370
    15
100
AcDbLine
 10
-588.575019858
 20
1289.5721574412
 30
0.0
 11
-591.0849192954
 21
1288.1228332506
 31
0.0
  0
CIRCLE
  5
D8
330
1F
100
AcDbEntity
  8
0
  6
Continuous
 62
     7
370
    15
100
AcDbCircle
 10
-591.0851219512
 20
1291.0211308585
 30
0.0
 40
7.784999999999948
  0
ARC
  5
D9
330
1F
100
AcDbEntity
  8
0
  6
Continuous
 62
     7
370
    15
100
AcDbCircle
 10
-591.0851219512
 20
1291.0211308585
 30
0.0
 40
2.510000000000096
100
AcDbArc
 50
0.0040336572
 51
60.0040336572
  0
ARC
  5
DA
330
1F
100
AcDbEntity
  8
0
  6
Continuous
 62
     7
370
    15
100
AcDbCircle
 10
-591.0851219512
 20
1291.0211308585
 30
0.0
 40
2.510000000000108
100
AcDbArc
 50
300.0040336572
 51
0.0040336572
  0
ARC
  5
DB
330
1F
100
AcDbEntity
  8
0
  6
Continuous
 62
     7
370
    15
100
AcDbCircle
 10
-591.0851219512
 20
1291.0211308585
 30
0.0
 40
2.510000000000108
100
AcDbArc
 50
240.0040336572
 51
300.0040336572
  0
ARC
  5
DC
330
1F
100
AcDbEntity
  8
0
  6
Continuous
 62
     7
370
    15
100
AcDbCircle
 10
-591.0851219512
 20
1291.0211308585
 30
0.0
 40
2.510000000000039
100
AcDbArc
 50
180.0040336572
 51
240.0040336572
  0
ARC
  5
DD
330
1F
100
AcDbEntity
  8
0
  6
Continuous
 62
     7
370
    15
100
AcDbCircle
 10
-591.0851219512
 20
1291.0211308585
 30
0.0
 40
2.51000000000005
100
AcDbArc
 50
120.0040336572
 51
180.0040336572
  0
ARC
  5
DE
330
1F
100
AcDbEntity
  8
0
  6
Continuous
 62
     7
370
    15
100
AcDbCircle
 10
-591.0851219512
 20
1291.0211308585
 30
0.0
 40
2.510000000000096
100
AcDbArc
 50
60.0040336572
 51
120.0040336572
  0
LINE
  5
DF
330
1F
100
AcDbEntity
  8
0
  6
Continuous
 62
     7
370
    15
100
AcDbLine
 10
111.4247819566
 20
1292.4704556451
 30
0.0
 11
111.4249607705
 21
1289.5721574412
 31
0.0
  0
LINE
  5
E0
330
1F
100
AcDbEntity
  8
0
  6
Continuous
 62
     7
370
    15
100
AcDbLine
 10
108.9146515511
 20
1293.9194296585
 30
0.0
 11
111.4247819566
 21
1292.4704556451
 31
0.0
  0
LINE
  5
E1
330
1F
100
AcDbEntity
  8
0
  6
Continuous
 62
     7
370
    15
100
AcDbLine
 10
106.4047595643
 20
1292.4701054679
 30
0.0
 11
108.9146515511
 21
1293.9194296585
 31
0.0
  0
LINE
  5
E2
330
1F
100
AcDbEntity
  8
0
  6
Continuous
 62
     7
370
    15
100
AcDbLine
 10
106.4049979829
 20
1289.5718072639
 30
0.0
 11
106.4047595643
 21
1292.4701054679
 31
0.0
  0
LINE
  5
E3
330
1F
100
AcDbEntity
  8
0
  6
Continuous
 62
     7
370
    15
100
AcDbLine
 10
108.9150687836
 20
1288.1228332506
 30
0.0
 11
106.4049979829
 21
1289.5718072639
 31
0.0
  0
LINE
  5
E4
330
1F
100
AcDbEntity
  8
0
  6
Continuous
 62
     7
370
    15
100
AcDbLine
 10
111.4249607705
 20
1289.5721574412
 30
0.0
 11
108.9150687836
 21
1288.1228332506
 31
0.0
  0
CIRCLE
  5
E5
330
1F
100
AcDbEntity
  8
0
  6
Continuous
 62
     7
370
    15
100
AcDbCircle
 10
108.9148780488
 20
1291.0211308585
 30
0.0
 40
7.78499999999999
  0
ARC
  5
E6
330
1F
100
AcDbEntity
  8
0
  6
Continuous
 62
     7
370
    15
100
AcDbCircle
 10
108.9148780488
 20
1291.0211308585
 30
0.0
 40
2.510000000000093
100
AcDbArc
 50
300.0040336572
 51
0.0040336572
  0
ARC
  5
E7
330
1F
100
AcDbEntity
  8
0
  6
Continuous
 62
     7
370
    15
100
AcDbCircle
 10
108.9148780488
 20
1291.0211308585
 30
0.0
 40
2.510000000000093
100
AcDbArc
 50
240.0040336572
 51
300.0040336572
  0
ARC
  5
E8
330
1F
100
AcDbEntity
  8
0
  6
Continuous
 62
     7
370
    15
100
AcDbCircle
 10
108.9148780488
 20
1291.0211308585
 30
0.0
 40
2.510000000000067
100
AcDbArc
 50
180.0040336572
 51
240.0040336572
  0
ARC
  5
E9
330
1F
100
AcDbEntity
  8
0
  6
Continuous
 62
     7
370
    15
100
AcDbCircle
 10
108.9148780488
 20
1291.0211308585
 30
0.0
 40
2.510000000000086
100
AcDbArc
 50
120.0040336572
 51
180.0040336572
  0
ARC
  5
EA
330
1F
100
AcDbEntity
  8
0
  6
Continuous
 62
     7
370
    15
100
AcDbCircle
 10
108.9148780488
 20
1291.0211308585
 30
0.0
 40
2.510000000000086
100
AcDbArc
 50
60.0040336572
 51
120.0040336572
  0
ARC
  5
EB
330
1F
100
AcDbEntity
  8
0
  6
Continuous
 62
     7
370
    15
100
AcDbCircle
 10
108.9148780488
 20
1291.0211308585
 30
0.0
 40
2.510000000000074
100
AcDbArc
 50
0.0040336572
 51
60.0040336572
  0
LINE
  5
EC
330
1F
100
AcDbEntity
  8
0
  6
Continuous
 62
     7
370
    15
100
AcDbLine
 10
110.922672429
 20
1343.9309452758
 30
0.0
 11
108.1086179398
 21
1343.2372328923
 31
0.0
  0
LINE
  5
ED
330
1F
100
AcDbEntity
  8
0
  6
Continuous
 62
     7
370
    15
100
AcDbLine
 10
106.9071075105
 20
1348.1113170372
 30
0.0
 11
109.7211619996
 21
1348.8050294207
 31
0.0
  0
LINE
  5
EE
330
1F
100
AcDbEntity
  8
0
  6
Continuous
 62
     7
370
    15
100
AcDbLine
 10
106.1008354806
 20
1345.327418773
 30
0.0
 11
106.9071075105
 21
1348.1113170372
 31
0.0
  0
LINE
  5
EF
330
1F
100
AcDbEntity
  8
0
  6
Continuous
 62
     7
370
    15
100
AcDbLine
 10
108.1086179398
 20
1343.2372328923
 30
0.0
 11
106.1008354806
 21
1345.327418773
 31
0.0
  0
CIRCLE
  5
F0
330
1F
100
AcDbEntity
  8
0
  6
Continuous
 62
     7
370
    15
100
AcDbCircle
 10
108.9148780488
 20
1346.0211308585
 30
0.0
 40
7.784999999999937
  0
LINE
  5
F1
330
1F
100
AcDbEntity
  8
0
  6
Continuous
 62
     7
370
    15
100
AcDbLine
 10
109.7211619996
 20
1348.8050294207
 30
0.0
 11
111.7289444588
 21
1346.71484354
 31
0.0
  0
LINE
  5
F2
330
1F
100
AcDbEntity
  8
0
  6
Continuous
 62
     7
370
    15
100
AcDbLine
 10
111.7289444588
 20
1346.71484354
 30
0.0
 11
110.922672429
 21
1343.9309452758
 31
0.0
  0
ARC
  5
F3
330
1F
100
AcDbEntity
  8
0
  6
Continuous
 62
     7
370
    15
100
AcDbCircle
 10
108.9148780488
 20
1346.0211308585
 30
0.0
 40
2.510000000000031
100
AcDbArc
 50
223.8482527894
 51
283.8482527894
  0
ARC
  5
F4
330
1F
100
AcDbEntity
  8
0
  6
Continuous
 62
     7
370
    15
100
AcDbCircle
 10
108.9148780488
 20
1346.0211308585
 30
0.0
 40
2.509999999999983
100
AcDbArc
 50
163.8482527894
 51
223.8482527894
  0
ARC
  5
F5
330
1F
100
AcDbEntity
  8
0
  6
Continuous
 62
     7
370
    15
100
AcDbCircle
 10
108.9148780488
 20
1346.0211308585
 30
0.0
 40
2.510000000000027
100
AcDbArc
 50
103.8482527894
 51
163.8482527894
  0
ARC
  5
F6
330
1F
100
AcDbEntity
  8
0
  6
Continuous
 62
     7
370
    15
100
AcDbCircle
 10
108.9148780488
 20
1346.0211308585
 30
0.0
 40
2.51000000000012
100
AcDbArc
 50
43.8482527894
 51
103.8482527894
  0
ARC
  5
F7
330
1F
100
AcDbEntity
  8
0
  6
Continuous
 62
     7
370
    15
100
AcDbCircle
 10
108.9148780488
 20
1346.0211308585
 30
0.0
 40
2.51000000000012
100
AcDbArc
 50
343.8482527894
 51
43.8482527894
  0
ARC
  5
F8
330
1F
100
AcDbEntity
  8
0
  6
Continuous
 62
     7
370
    15
100
AcDbCircle
 10
108.9148780488
 20
1346.0211308585
 30
0.0
 40
2.510000000000031
100
AcDbArc
 50
283.8482527894
 51
343.8482527894
  0
LINE
  5
F9
330
1F
100
AcDbEntity
  8
0
  6
Continuous
 62
     7
370
    15
100
AcDbLine
 10
-588.5752210237
 20
1421.4704563008
 30
0.0
 11
-588.575019858
 21
1418.5721580969
 31
0.0
  0
LINE
  5
FA
330
1F
100
AcDbEntity
  8
0
  6
Continuous
 62
     7
370
    15
100
AcDbLine
 10
-591.0853290774
 20
1422.9194284515
 30
0.0
 11
-588.5752210237
 21
1421.4704563008
 31
0.0
  0
LINE
  5
FB
330
1F
100
AcDbEntity
  8
0
  6
Continuous
 62
     7
370
    15
100
AcDbLine
 10
-593.5952210642
 20
1421.4701023982
 30
0.0
 11
-591.0853290774
 21
1422.9194284515
 31
0.0
  0
LINE
  5
FC
330
1F
100
AcDbEntity
  8
0
  6
Continuous
 62
     7
370
    15
100
AcDbLine
 10
-593.5950198985
 20
1418.5718041943
 30
0.0
 11
-593.5952210642
 21
1421.4701023982
 31
0.0
  0
LINE
  5
FD
330
1F
100
AcDbEntity
  8
0
  6
Continuous
 62
     7
370
    15
100
AcDbLine
 10
-591.0849192954
 20
1417.1228320436
 30
0.0
 11
-593.5950198985
 21
1418.5718041943
 31
0.0
  0
LINE
  5
FE
330
1F
100
AcDbEntity
  8
0
  6
Continuous
 62
     7
370
    15
100
AcDbLine
 10
-588.575019858
 20
1418.5721580969
 30
0.0
 11
-591.0849192954
 21
1417.1228320436
 31
0.0
  0
CIRCLE
  5
FF
330
1F
100
AcDbEntity
  8
0
  6
Continuous
 62
     7
370
    15
100
AcDbCircle
 10
-591.0851219512
 20
1420.0211308585
 30
0.0
 40
7.785000000000061
  0
ARC
  5
100
330
1F
100
AcDbEntity
  8
0
  6
Continuous
 62
     7
370
    15
100
AcDbCircle
 10
-591.0851219512
 20
1420.0211308585
 30
0.0
 40
2.510000000000108
100
AcDbArc
 50
300.0040336572
 51
0.0040336572
  0
ARC
  5
101
330
1F
100
AcDbEntity
  8
0
  6
Continuous
 62
     7
370
    15
100
AcDbCircle
 10
-591.0851219512
 20
1420.0211308585
 30
0.0
 40
2.510000000000108
100
AcDbArc
 50
240.0040336572
 51
300.0040336572
  0
ARC
  5
102
330
1F
100
AcDbEntity
  8
0
  6
Continuous
 62
     7
370
    15
100
AcDbCircle
 10
-591.0851219512
 20
1420.0211308585
 30
0.0
 40
2.510000000000039
100
AcDbArc
 50
180.0040336572
 51
240.0040336572
  0
ARC
  5
103
330
1F
100
AcDbEntity
  8
0
  6
Continuous
 62
     7
370
    15
100
AcDbCircle
 10
-591.0851219512
 20
1420.0211308585
 30
0.0
 40
2.50999999999993
100
AcDbArc
 50
120.0040336572
 51
180.0040336572
  0
ARC
  5
104
330
1F
100
AcDbEntity
  8
0
  6
Continuous
 62
     7
370
    15
100
AcDbCircle
 10
-591.0851219512
 20
1420.0211308585
 30
0.0
 40
2.510000000000096
100
AcDbArc
 50
60.0040336572
 51
120.0040336572
  0
ARC
  5
105
330
1F
100
AcDbEntity
  8
0
  6
Continuous
 62
     7
370
    15
100
AcDbCircle
 10
-591.0851219512
 20
1420.0211308585
 30
0.0
 40
2.510000000000096
100
AcDbArc
 50
0.0040336572
 51
60.0040336572
  0
LINE
  5
106
330
1F
100
AcDbEntity
  8
0
  6
Continuous
 62
     7
370
    15
100
AcDbLine
 10
111.4247819566
 20
1421.4704563008
 30
0.0
 11
111.4249607705
 21
1418.5721580969
 31
0.0
  0
LINE
  5
107
330
1F
100
AcDbEntity
  8
0
  6
Continuous
 62
     7
370
    15
100
AcDbLine
 10
106.4047595643
 20
1421.4701023982
 30
0.0
 11
108.9146515511
 21
1422.9194284515
 31
0.0
  0
LINE
  5
108
330
1F
100
AcDbEntity
  8
0
  6
Continuous
 62
     7
370
    15
100
AcDbLine
 10
106.4049979829
 20
1418.5718041943
 30
0.0
 11
106.4047595643
 21
1421.4701023982
 31
0.0
  0
LINE
  5
109
330
1F
100
AcDbEntity
  8
0
  6
Continuous
 62
     7
370
    15
100
AcDbLine
 10
108.9150687836
 20
1417.1228320436
 30
0.0
 11
106.4049979829
 21
1418.5718041943
 31
0.0
  0
CIRCLE
  5
10A
330
1F
100
AcDbEntity
  8
0
  6
Continuous
 62
     7
370
    15
100
AcDbCircle
 10
108.9148780488
 20
1420.0211308585
 30
0.0
 40
7.78499999999999
  0
LINE
  5
10B
330
1F
100
AcDbEntity
  8
0
  6
Continuous
 62
     7
370
    15
100
AcDbLine
 10
111.4249607705
 20
1418.5721580969
 30
0.0
 11
108.9150687836
 21
1417.1228320436
 31
0.0
  0
LINE
  5
10C
330
1F
100
AcDbEntity
  8
0
  6
Continuous
 62
     7
370
    15
100
AcDbLine
 10
108.9146515511
 20
1422.9194284515
 30
0.0
 11
111.4247819566
 21
1421.4704563008
 31
0.0
  0
ARC
  5
10D
330
1F
100
AcDbEntity
  8
0
  6
Continuous
 62
     7
370
    15
100
AcDbCircle
 10
108.9148780488
 20
1420.0211308585
 30
0.0
 40
2.510000000000074
100
AcDbArc
 50
0.0040336572
 51
60.0040336572
  0
ARC
  5
10E
330
1F
100
AcDbEntity
  8
0
  6
Continuous
 62
     7
370
    15
100
AcDbCircle
 10
108.9148780488
 20
1420.0211308585
 30
0.0
 40
2.51000000000029
100
AcDbArc
 50
300.0040336572
 51
0.0040336572
  0
ARC
  5
10F
330
1F
100
AcDbEntity
  8
0
  6
Continuous
 62
     7
370
    15
100
AcDbCircle
 10
108.9148780488
 20
1420.0211308585
 30
0.0
 40
2.51000000000029
100
AcDbArc
 50
240.0040336572
 51
300.0040336572
  0
ARC
  5
110
330
1F
100
AcDbEntity
  8
0
  6
Continuous
 62
     7
370
    15
100
AcDbCircle
 10
108.9148780488
 20
1420.0211308585
 30
0.0
 40
2.510000000000067
100
AcDbArc
 50
180.0040336572
 51
240.0040336572
  0
ARC
  5
111
330
1F
100
AcDbEntity
  8
0
  6
Continuous
 62
     7
370
    15
100
AcDbCircle
 10
108.9148780488
 20
1420.0211308585
 30
0.0
 40
2.509999999999958
100
AcDbArc
 50
120.0040336572
 51
180.0040336572
  0
ARC
  5
112
330
1F
100
AcDbEntity
  8
0
  6
Continuous
 62
     7
370
    15
100
AcDbCircle
 10
108.9148780488
 20
1420.0211308585
 30
0.0
 40
2.510000000000074
100
AcDbArc
 50
60.0040336572
 51
120.0040336572
  0
LINE
  5
113
330
1F
100
AcDbEntity
  8
0
  6
Continuous
 62
     7
370
    15
100
AcDbLine
 10
108.0361982964
 20
1482.7830200182
 30
0.0
 11
110.8674189233
 21
1482.1630497561
 31
0.0
  0
LINE
  5
114
330
1F
100
AcDbEntity
  8
0
  6
Continuous
 62
     7
370
    15
100
AcDbLine
 10
106.0836693429
 20
1480.6410973058
 30
0.0
 11
108.0361982964
 21
1482.7830200182
 31
0.0
  0
LINE
  5
115
330
1F
100
AcDbEntity
  8
0
  6
Continuous
 62
     7
370
    15
100
AcDbLine
 10
106.9623610162
 20
1477.879211782
 30
0.0
 11
106.0836693429
 21
1480.6410973058
 31
0.0
  0
LINE
  5
116
330
1F
100
AcDbEntity
  8
0
  6
Continuous
 62
     7
370
    15
100
AcDbLine
 10
109.793581643
 20
1477.25924152
 30
0.0
 11
106.9623610162
 21
1477.879211782
 31
0.0
  0
LINE
  5
117
330
1F
100
AcDbEntity
  8
0
  6
Continuous
 62
     7
370
    15
100
AcDbLine
 10
111.7461105965
 20
1479.4011642323
 30
0.0
 11
109.793581643
 21
1477.25924152
 31
0.0
  0
LINE
  5
118
330
1F
100
AcDbEntity
  8
0
  6
Continuous
 62
     7
370
    15
100
AcDbLine
 10
110.8674189233
 20
1482.1630497561
 30
0.0
 11
111.7461105965
 21
1479.4011642323
 31
0.0
  0
CIRCLE
  5
119
330
1F
100
AcDbEntity
  8
0
  6
Continuous
 62
     7
370
    15
100
AcDbCircle
 10
108.9148780488
 20
1480.0211308585
 30
0.0
 40
7.784999999999837
  0
ARC
  5
11A
330
1F
100
AcDbEntity
  8
0
  6
Continuous
 62
     7
370
    15
100
AcDbCircle
 10
108.9148780488
 20
1480.0211308585
 30
0.0
 40
2.510000000000059
100
AcDbArc
 50
257.6486180877
 51
317.6486180877
  0
ARC
  5
11B
330
1F
100
AcDbEntity
  8
0
  6
Continuous
 62
     7
370
    15
100
AcDbCircle
 10
108.9148780488
 20
1480.0211308585
 30
0.0
 40
2.509999999999992
100
AcDbArc
 50
317.6486180877
 51
17.6486180877
  0
ARC
  5
11C
330
1F
100
AcDbEntity
  8
0
  6
Continuous
 62
     7
370
    15
100
AcDbCircle
 10
108.9148780488
 20
1480.0211308585
 30
0.0
 40
2.509999999999992
100
AcDbArc
 50
77.6486180877
 51
137.6486180877
  0
ARC
  5
11D
330
1F
100
AcDbEntity
  8
0
  6
Continuous
 62
     7
370
    15
100
AcDbCircle
 10
108.9148780488
 20
1480.0211308585
 30
0.0
 40
2.510000000000059
100
AcDbArc
 50
197.6486180877
 51
257.6486180877
  0
ARC
  5
11E
330
1F
100
AcDbEntity
  8
0
  6
Continuous
 62
     7
370
    15
100
AcDbCircle
 10
108.9148780488
 20
1480.0211308585
 30
0.0
 40
2.509999999999915
100
AcDbArc
 50
17.6486180877
 51
77.6486180877
  0
ARC
  5
11F
330
1F
100
AcDbEntity
  8
0
  6
Continuous
 62
     7
370
    15
100
AcDbCircle
 10
108.9148780488
 20
1480.0211308585
 30
0.0
 40
2.509999999999992
100
AcDbArc
 50
137.6486180877
 51
197.6486180877
  0
LINE
  5
120
330
1F
100
AcDbEntity
  8
0
  6
Continuous
 62
     7
370
    15
100
AcDbLine
 10
-591.9638270355
 20
1482.7830200182
 30
0.0
 11
-589.1326064087
 21
1482.1630497561
 31
0.0
  0
LINE
  5
121
330
1F
100
AcDbEntity
  8
0
  6
Continuous
 62
     7
370
    15
100
AcDbLine
 10
-593.9163336374
 20
1480.6410973058
 30
0.0
 11
-591.9638270355
 21
1482.7830200182
 31
0.0
  0
LINE
  5
122
330
1F
100
AcDbEntity
  8
0
  6
Continuous
 62
     7
370
    15
100
AcDbLine
 10
-593.0376345135
 20
1477.879211782
 30
0.0
 11
-593.9163336374
 21
1480.6410973058
 31
0.0
  0
LINE
  5
123
330
1F
100
AcDbEntity
  8
0
  6
Continuous
 62
     7
370
    15
100
AcDbLine
 10
-590.2064213372
 20
1477.25924152
 30
0.0
 11
-593.0376345135
 21
1477.879211782
 31
0.0
  0
LINE
  5
124
330
1F
100
AcDbEntity
  8
0
  6
Continuous
 62
     7
370
    15
100
AcDbLine
 10
-588.2539072849
 20
1479.4011642323
 30
0.0
 11
-590.2064213372
 21
1477.25924152
 31
0.0
  0
LINE
  5
125
330
1F
100
AcDbEntity
  8
0
  6
Continuous
 62
     7
370
    15
100
AcDbLine
 10
-589.1326064087
 20
1482.1630497561
 30
0.0
 11
-588.2539072849
 21
1479.4011642323
 31
0.0
  0
CIRCLE
  5
126
330
1F
100
AcDbEntity
  8
0
  6
Continuous
 62
     7
370
    15
100
AcDbCircle
 10
-591.0851219512
 20
1480.0211308585
 30
0.0
 40
7.784999999999831
  0
ARC
  5
127
330
1F
100
AcDbEntity
  8
0
  6
Continuous
 62
     7
370
    15
100
AcDbCircle
 10
-591.0851219512
 20
1480.0211308585
 30
0.0
 40
2.510000000000024
100
AcDbArc
 50
317.6486180877
 51
17.6486180877
  0
ARC
  5
128
330
1F
100
AcDbEntity
  8
0
  6
Continuous
 62
     7
370
    15
100
AcDbCircle
 10
-591.0851219512
 20
1480.0211308585
 30
0.0
 40
2.509999999999928
100
AcDbArc
 50
17.6486180877
 51
77.6486180877
  0
ARC
  5
129
330
1F
100
AcDbEntity
  8
0
  6
Continuous
 62
     7
370
    15
100
AcDbCircle
 10
-591.0851219512
 20
1480.0211308585
 30
0.0
 40
2.510000000000053
100
AcDbArc
 50
257.6486180877
 51
317.6486180877
  0
ARC
  5
12A
330
1F
100
AcDbEntity
  8
0
  6
Continuous
 62
     7
370
    15
100
AcDbCircle
 10
-591.0851219512
 20
1480.0211308585
 30
0.0
 40
2.510000000000053
100
AcDbArc
 50
197.6486180877
 51
257.6486180877
  0
ARC
  5
12B
330
1F
100
AcDbEntity
  8
0
  6
Continuous
 62
     7
370
    15
100
AcDbCircle
 10
-591.0851219512
 20
1480.0211308585
 30
0.0
 40
2.510000000000024
100
AcDbArc
 50
137.6486180877
 51
197.6486180877
  0
ARC
  5
12C
330
1F
100
AcDbEntity
  8
0
  6
Continuous
 62
     7
370
    15
100
AcDbCircle
 10
-591.0851219512
 20
1480.0211308585
 30
0.0
 40
2.510000000000024
100
AcDbArc
 50
77.6486180877
 51
137.6486180877
  0
LINE
  5
12D
330
1F
100
AcDbEntity
  8
0
  6
Continuous
 62
     7
370
    15
100
AcDbLine
 10
1049.7947713517
 20
1442.6153604971
 30
0.0
 11
1049.3891021394
 21
1439.5241779373
 31
0.0
  0
LWPOLYLINE
  5
12E
330
1F
100
AcDbEntity
  8
0
  6
Continuous
 62
     7
370
    15
100
AcDbPolyline
 90
       10
 70
   128
 43
0.0
 10
1049.3891021394
 20
1439.5241779373
 10
1049.357273259
 20
1439.5485785888
 10
1049.3263980531
 20
1439.5722379075
 10
1049.2974301957
 20
1439.5944369124
 10
1049.271204152
 20
1439.6145013259
 10
1049.2486735963
 20
1439.6318202005
 10
1049.2303153657
 20
1439.6458682702
 10
1049.216844716
 20
1439.656220852
 10
1049.208619275
 20
1439.662561296
 10
1049.205758252
 20
1439.6646958874
  0
LINE
  5
12F
330
1F
100
AcDbEntity
  8
0
  6
Continuous
 62
     7
370
    15
100
AcDbLine
 10
1049.205758252
 20
1439.6646958874
 30
0.0
 11
1049.5815059327
 21
1442.5268997536
 31
0.0
  0
LWPOLYLINE
  5
130
330
1F
100
AcDbEntity
  8
0
  6
Continuous
 62
     7
370
    15
100
AcDbPolyline
 90
       10
 70
   128
 43
0.0
 10
1049.7947713517
 20
1442.6153604971
 10
1049.7576972626
 20
1442.5999973999
 10
1049.7218152665
 20
1442.5851036893
 10
1049.6880790375
 20
1442.5711301253
 10
1049.6576806687
 20
1442.5584976659
 10
1049.6313354157
 20
1442.5475937412
 10
1049.6099969529
 20
1442.5387499021
 10
1049.5942613267
 20
1442.5322343693
 10
1049.5847245835
 20
1442.5282408581
 10
1049.5815059327
 20
1442.5268997536
  0
CIRCLE
  5
131
330
1F
100
AcDbEntity
  8
0
  6
Continuous
 62
     7
370
    15
100
AcDbCircle
 10
1046.9148780488
 20
1441.4211308585
 30
0.0
 40
12.91715728752555
  0
CIRCLE
  5
132
330
1F
100
AcDbEntity
  8
0
  6
Continuous
 62
     7
370
    15
100
AcDbCircle
 10
1046.9148780488
 20
1441.4211308585
 30
0.0
 40
13.0585786437627
  0
LINE
  5
133
330
1F
100
AcDbEntity
  8
0
  6
Continuous
 62
     7
370
    15
100
AcDbLine
 10
1049.5815059327
 20
1442.5268997536
 30
0.0
 11
1047.2905418061
 21
1444.2833331512
 31
0.0
  0
LWPOLYLINE
  5
134
330
1F
100
AcDbEntity
  8
0
  6
Continuous
 62
     7
370
    15
100
AcDbPolyline
 90
       10
 70
   128
 43
0.0
 10
1047.2905418061
 20
1444.2833331512
 10
1047.2910186433
 20
1444.2868125723
 10
1047.2923299454
 20
1444.2971428023
 10
1047.2945949219
 20
1444.3140109168
 10
1047.2975751542
 20
1444.3369065509
 10
1047.3012706422
 20
1444.3651293502
 10
1047.3055621766
 20
1444.3978224979
 10
1047.3103305482
 20
1444.4339950667
 10
1047.3153373383
 20
1444.472548096
 10
1047.3205825471
 20
1444.5123118446
  0
LINE
  5
135
330
1F
100
AcDbEntity
  8
0
  6
Continuous
 62
     7
370
    15
100
AcDbLine
 10
1047.3205825471
 20
1444.5123118446
 30
0.0
 11
1049.7947713517
 21
1442.6153604971
 31
0.0
  0
LINE
  5
136
330
1F
100
AcDbEntity
  8
0
  6
Continuous
 62
     7
370
    15
100
AcDbLine
 10
1047.2905418061
 20
1444.2833331512
 30
0.0
 11
1044.6239492081
 21
1443.1775664077
 31
0.0
  0
LWPOLYLINE
  5
137
330
1F
100
AcDbEntity
  8
0
  6
Continuous
 62
     7
370
    15
100
AcDbPolyline
 90
        9
 70
   128
 43
0.0
 10
1044.6239492081
 20
1443.1775664077
 10
1044.6204921387
 20
1443.1802672432
 10
1044.6100017213
 20
1443.1882617162
 10
1044.5930740021
 20
1443.2012480782
 10
1044.5703050278
 20
1443.218723415
 10
1044.5425292634
 20
1443.2400171743
 10
1044.5108195924
 20
1443.2643097923
 10
1044.476487317
 20
1443.2906699465
 10
1044.4407245301
 20
1443.3180806325
  0
LINE
  5
138
330
1F
100
AcDbEntity
  8
0
  6
Continuous
 62
     7
370
    15
100
AcDbLine
 10
1044.4407245301
 20
1443.3180806325
 30
0.0
 11
1047.3205825471
 21
1444.5123118446
 31
0.0
  0
LINE
  5
139
330
1F
100
AcDbEntity
  8
0
  6
Continuous
 62
     7
370
    15
100
AcDbLine
 10
1044.6239492081
 20
1443.1775664077
 30
0.0
 11
1044.2483207368
 21
1440.3153625415
 31
0.0
  0
LWPOLYLINE
  5
13A
330
1F
100
AcDbEntity
  8
0
  6
Continuous
 62
     7
370
    15
100
AcDbPolyline
 90
        9
 70
   128
 43
0.0
 10
1044.2483207368
 20
1440.3153625415
 10
1044.2441484116
 20
1440.3136638091
 10
1044.2321082734
 20
1440.3086309419
 10
1044.2123195313
 20
1440.3004539297
 10
1044.185855069
 20
1440.2894531475
 10
1044.1535493516
 20
1440.276049553
 10
1044.1165944718
 20
1440.260753511
 10
1044.0765401505
 20
1440.244161068
 10
1044.0349361085
 20
1440.2269017981
  0
LINE
  5
13B
330
1F
100
AcDbEntity
  8
0
  6
Continuous
 62
     7
370
    15
100
AcDbLine
 10
1044.0349361085
 20
1440.2269017981
 30
0.0
 11
1044.4407245301
 21
1443.3180806325
 31
0.0
  0
LINE
  5
13C
330
1F
100
AcDbEntity
  8
0
  6
Continuous
 62
     7
370
    15
100
AcDbLine
 10
1049.3891021394
 20
1439.5241779373
 30
0.0
 11
1046.5091249131
 21
1438.3299504505
 31
0.0
  0
ARC
  5
13D
330
1F
100
AcDbEntity
  8
0
  6
Continuous
 62
     7
370
    15
100
AcDbCircle
 10
966.8096468701
 20
1448.9027103694
 30
0.0
 40
80.39769929931612
100
AcDbArc
 50
352.4433873604
 51
352.6079658315
  0
LINE
  5
13E
330
1F
100
AcDbEntity
  8
0
  6
Continuous
 62
     7
370
    15
100
AcDbLine
 10
1046.5391656541
 20
1438.5589254187
 30
0.0
 11
1049.205758252
 21
1439.6646958874
 31
0.0
  0
LINE
  5
13F
330
1F
100
AcDbEntity
  8
0
  6
Continuous
 62
     7
370
    15
100
AcDbLine
 10
1044.2483207368
 20
1440.3153625415
 30
0.0
 11
1046.5391656541
 21
1438.5589254187
 31
0.0
  0
LINE
  5
140
330
1F
100
AcDbEntity
  8
0
  6
Continuous
 62
     7
370
    15
100
AcDbLine
 10
1046.5091249131
 20
1438.3299504505
 30
0.0
 11
1044.0349361085
 21
1440.2269017981
 31
0.0
  0
CIRCLE
  5
141
330
1F
100
AcDbEntity
  8
0
  6
Continuous
 62
     7
370
    15
100
AcDbCircle
 10
1046.9148780488
 20
1441.4211308585
 30
0.0
 40
14.94142135623733
  0
CIRCLE
  5
142
330
1F
100
AcDbEntity
  8
0
  6
Continuous
 62
     7
370
    15
100
AcDbCircle
 10
1046.9148780488
 20
1441.4211308585
 30
0.0
 40
15.00000000000001
  0
LINE
  5
143
330
1F
100
AcDbEntity
  8
0
  6
Continuous
 62
     7
370
    15
100
AcDbLine
 10
-627.7516925551
 20
1440.3153625415
 30
0.0
 11
-625.4607880331
 21
1438.5589254187
 31
0.0
  0
LWPOLYLINE
  5
144
330
1F
100
AcDbEntity
  8
0
  6
Continuous
 62
     7
370
    15
100
AcDbPolyline
 90
        9
 70
   128
 43
0.0
 10
-625.4908362247
 20
1438.3299504505
 10
-625.4849726177
 20
1438.3746204065
 10
-625.4793399788
 20
1438.4175767289
 10
-625.4741394736
 20
1438.4571616636
 10
-625.4695871688
 20
1438.4918627427
 10
-625.4658544279
 20
1438.5203388618
 10
-625.4630753614
 20
1438.5414985107
 10
-625.4613617278
 20
1438.5545258508
 10
-625.4607880331
 20
1438.5589254187
  0
LINE
  5
145
330
1F
100
AcDbEntity
  8
0
  6
Continuous
 62
     7
370
    15
100
AcDbLine
 10
-625.4908362247
 20
1438.3299504505
 30
0.0
 11
-627.9650175787
 21
1440.2269017981
 31
0.0
  0
LWPOLYLINE
  5
146
330
1F
100
AcDbEntity
  8
0
  6
Continuous
 62
     7
370
    15
100
AcDbPolyline
 90
        9
 70
   128
 43
0.0
 10
-627.7516925551
 20
1440.3153625415
 10
-627.7557903744
 20
1440.3136638091
 10
-627.7679348208
 20
1440.3086309419
 10
-627.787649057
 20
1440.3004539297
 10
-627.814173124
 20
1440.2894531475
 10
-627.8465011932
 20
1440.276049553
 10
-627.8833815671
 20
1440.260753511
 10
-627.9234060861
 20
1440.244161068
 10
-627.9650175787
 20
1440.2269017981
  0
LINE
  5
147
330
1F
100
AcDbEntity
  8
0
  6
Continuous
 62
     7
370
    15
100
AcDbLine
 10
-624.7094565846
 20
1444.2833331512
 30
0.0
 11
-627.3760342814
 21
1443.1775664077
 31
0.0
  0
LWPOLYLINE
  5
148
330
1F
100
AcDbEntity
  8
0
  6
Continuous
 62
     7
370
    15
100
AcDbPolyline
 90
        9
 70
   128
 43
0.0
 10
-627.3760342814
 20
1443.1775664077
 10
-627.3795509554
 20
1443.1802672432
 10
-627.3899817682
 20
1443.1882617162
 10
-627.4069169379
 20
1443.2012480782
 10
-627.429708264
 20
1443.218723415
 10
-627.4574840285
 20
1443.2400171743
 10
-627.4891713477
 20
1443.2643097923
 10
-627.5235483266
 20
1443.2906699465
 10
-627.5593036629
 20
1443.3180806325
  0
LINE
  5
149
330
1F
100
AcDbEntity
  8
0
  6
Continuous
 62
     7
370
    15
100
AcDbLine
 10
-627.5593036629
 20
1443.3180806325
 30
0.0
 11
-624.679408393
 21
1444.5123118446
 31
0.0
  0
LWPOLYLINE
  5
14A
330
1F
100
AcDbEntity
  8
0
  6
Continuous
 62
     7
370
    15
100
AcDbPolyline
 90
       10
 70
   128
 43
0.0
 10
-624.7094565846
 20
1444.2833331512
 10
-624.7090020992
 20
1444.2868125723
 10
-624.7076460935
 20
1444.2971428023
 10
-624.705433271
 20
1444.3140109168
 10
-624.7024232365
 20
1444.3369065509
 10
-624.6987202979
 20
1444.3651293502
 10
-624.6944287635
 20
1444.3978224979
 10
-624.6896827437
 20
1444.4339950667
 10
-624.6846237994
 20
1444.472548096
 10
-624.679408393
 20
1444.5123118446
  0
LINE
  5
14B
330
1F
100
AcDbEntity
  8
0
  6
Continuous
 62
     7
370
    15
100
AcDbLine
 10
-622.2052195884
 20
1442.6153604971
 30
0.0
 11
-622.6109409548
 21
1439.5241779373
 31
0.0
  0
LINE
  5
14C
330
1F
100
AcDbEntity
  8
0
  6
Continuous
 62
     7
370
    15
100
AcDbLine
 10
-624.679408393
 20
1444.5123118446
 30
0.0
 11
-622.2052195884
 21
1442.6153604971
 31
0.0
  0
LINE
  5
14D
330
1F
100
AcDbEntity
  8
0
  6
Continuous
 62
     7
370
    15
100
AcDbLine
 10
-627.9650175787
 20
1440.2269017981
 30
0.0
 11
-627.5593036629
 21
1443.3180806325
 31
0.0
  0
LINE
  5
14E
330
1F
100
AcDbEntity
  8
0
  6
Continuous
 62
     7
370
    15
100
AcDbLine
 10
-622.6109409548
 20
1439.5241779373
 30
0.0
 11
-625.4908362247
 21
1438.3299504505
 31
0.0
  0
CIRCLE
  5
14F
330
1F
100
AcDbEntity
  8
0
  6
Continuous
 62
     7
370
    15
100
AcDbCircle
 10
-625.0851219512
 20
1441.4211308585
 30
0.0
 40
12.91715728752534
  0
LINE
  5
150
330
1F
100
AcDbEntity
  8
0
  6
Continuous
 62
     7
370
    15
100
AcDbLine
 10
-627.3760342814
 20
1443.1775664077
 30
0.0
 11
-627.7516925551
 21
1440.3153625415
 31
0.0
  0
LINE
  5
151
330
1F
100
AcDbEntity
  8
0
  6
Continuous
 62
     7
370
    15
100
AcDbLine
 10
-622.4185520626
 20
1442.5268997536
 30
0.0
 11
-624.7094565846
 21
1444.2833331512
 31
0.0
  0
LWPOLYLINE
  5
152
330
1F
100
AcDbEntity
  8
0
  6
Continuous
 62
     7
370
    15
100
AcDbPolyline
 90
       10
 70
   128
 43
0.0
 10
-622.2052195884
 20
1442.6153604971
 10
-622.2422638751
 20
1442.5999973999
 10
-622.2781831242
 20
1442.5851036893
 10
-622.3118895508
 20
1442.5711301253
 10
-622.3423475243
 20
1442.5584976659
 10
-622.3686406232
 20
1442.5475937412
 10
-622.3899716355
 20
1442.5387499021
 10
-622.4056849099
 20
1442.5322343693
 10
-622.4153110601
 20
1442.5282408581
 10
-622.4185520626
 20
1442.5268997536
  0
CIRCLE
  5
153
330
1F
100
AcDbEntity
  8
0
  6
Continuous
 62
     7
370
    15
100
AcDbCircle
 10
-625.0851219512
 20
1441.4211308585
 30
0.0
 40
13.05857864376259
  0
LWPOLYLINE
  5
154
330
1F
100
AcDbEntity
  8
0
  6
Continuous
 62
     7
370
    15
100
AcDbPolyline
 90
       10
 70
   128
 43
0.0
 10
-622.6109409548
 20
1439.5241779373
 10
-622.6427623845
 20
1439.5485785888
 10
-622.6736226894
 20
1439.5722379075
 10
-622.7025756456
 20
1439.5944369124
 10
-622.7287420846
 20
1439.6145013259
 10
-622.751332245
 20
1439.6318202005
 10
-622.7696606733
 20
1439.6458682702
 10
-622.7831611253
 20
1439.656220852
 10
-622.7914312698
 20
1439.662561296
 10
-622.7942103363
 20
1439.6646958874
  0
LINE
  5
155
330
1F
100
AcDbEntity
  8
0
  6
Continuous
 62
     7
370
    15
100
AcDbLine
 10
-622.7942103363
 20
1439.6646958874
 30
0.0
 11
-622.4185520626
 21
1442.5268997536
 31
0.0
  0
LINE
  5
156
330
1F
100
AcDbEntity
  8
0
  6
Continuous
 62
     7
370
    15
100
AcDbLine
 10
-625.4607880331
 20
1438.5589254187
 30
0.0
 11
-622.7942103363
 21
1439.6646958874
 31
0.0
  0
CIRCLE
  5
157
330
1F
100
AcDbEntity
  8
0
  6
Continuous
 62
     7
370
    15
100
AcDbCircle
 10
-625.0851219512
 20
1441.4211308585
 30
0.0
 40
14.94142135623723
  0
CIRCLE
  5
158
330
1F
100
AcDbEntity
  8
0
  6
Continuous
 62
     7
370
    15
100
AcDbCircle
 10
-625.0851219512
 20
1441.4211308585
 30
0.0
 40
15.00000000000012
  0
CIRCLE
  5
159
330
1F
100
AcDbEntity
  8
0
  6
Continuous
 62
     7
370
    15
100
AcDbCircle
 10
108.9148780488
 20
1346.0211308585
 30
0.0
 40
8.749999999999975
  0
CIRCLE
  5
15A
330
1F
100
AcDbEntity
  8
0
  6
Continuous
 62
     7
370
    15
100
AcDbCircle
 10
108.9148780488
 20
1346.0211308585
 30
0.0
 40
15.00000000000003
  0
CIRCLE
  5
15B
330
1F
100
AcDbEntity
  8
0
  6
Continuous
 62
     7
370
    15
100
AcDbCircle
 10
108.9148780488
 20
1346.0211308585
 30
0.0
 40
12.99999999999982
  0
CIRCLE
  5
15C
330
1F
100
AcDbEntity
  8
0
  6
Continuous
 62
     7
370
    15
100
AcDbCircle
 10
-591.0851219512
 20
1291.0211308585
 30
0.0
 40
15.00000000000002
  0
CIRCLE
  5
15D
330
1F
100
AcDbEntity
  8
0
  6
Continuous
 62
     7
370
    15
100
AcDbCircle
 10
-591.0851219512
 20
1291.0211308585
 30
0.0
 40
12.99999999999994
  0
CIRCLE
  5
15E
330
1F
100
AcDbEntity
  8
0
  6
Continuous
 62
     7
370
    15
100
AcDbCircle
 10
-591.0851219512
 20
1291.0211308585
 30
0.0
 40
8.750000000000032
  0
CIRCLE
  5
15F
330
1F
100
AcDbEntity
  8
0
  6
Continuous
 62
     7
370
    15
100
AcDbCircle
 10
108.9148780488
 20
1291.0211308585
 30
0.0
 40
15.0
  0
CIRCLE
  5
160
330
1F
100
AcDbEntity
  8
0
  6
Continuous
 62
     7
370
    15
100
AcDbCircle
 10
108.9148780488
 20
1291.0211308585
 30
0.0
 40
12.99999999999992
  0
CIRCLE
  5
161
330
1F
100
AcDbEntity
  8
0
  6
Continuous
 62
     7
370
    15
100
AcDbCircle
 10
108.9148780488
 20
1291.0211308585
 30
0.0
 40
8.750000000000007
  0
CIRCLE
  5
162
330
1F
100
AcDbEntity
  8
0
  6
Continuous
 62
     7
370
    15
100
AcDbCircle
 10
-591.0851219512
 20
1346.0211308585
 30
0.0
 40
8.74999999999999
  0
CIRCLE
  5
163
330
1F
100
AcDbEntity
  8
0
  6
Continuous
 62
     7
370
    15
100
AcDbCircle
 10
-591.0851219512
 20
1346.0211308585
 30
0.0
 40
12.99999999999982
  0
CIRCLE
  5
164
330
1F
100
AcDbEntity
  8
0
  6
Continuous
 62
     7
370
    15
100
AcDbCircle
 10
-591.0851219512
 20
1346.0211308585
 30
0.0
 40
15.00000000000001
  0
CIRCLE
  5
165
330
1F
100
AcDbEntity
  8
0
  6
Continuous
 62
     7
370
    15
100
AcDbCircle
 10
-591.0851219512
 20
1420.0211308585
 30
0.0
 40
14.99999999999999
  0
CIRCLE
  5
166
330
1F
100
AcDbEntity
  8
0
  6
Continuous
 62
     7
370
    15
100
AcDbCircle
 10
-591.0851219512
 20
1420.0211308585
 30
0.0
 40
13.00000000000004
  0
CIRCLE
  5
167
330
1F
100
AcDbEntity
  8
0
  6
Continuous
 62
     7
370
    15
100
AcDbCircle
 10
-591.0851219512
 20
1420.0211308585
 30
0.0
 40
8.749999999999964
  0
CIRCLE
  5
168
330
1F
100
AcDbEntity
  8
0
  6
Continuous
 62
     7
370
    15
100
AcDbCircle
 10
108.9148780488
 20
1480.0211308585
 30
0.0
 40
8.749999999999952
  0
CIRCLE
  5
169
330
1F
100
AcDbEntity
  8
0
  6
Continuous
 62
     7
370
    15
100
AcDbCircle
 10
108.9148780488
 20
1480.0211308585
 30
0.0
 40
15.00000000000003
  0
CIRCLE
  5
16A
330
1F
100
AcDbEntity
  8
0
  6
Continuous
 62
     7
370
    15
100
AcDbCircle
 10
108.9148780488
 20
1480.0211308585
 30
0.0
 40
13.00000000000004
  0
CIRCLE
  5
16B
330
1F
100
AcDbEntity
  8
0
  6
Continuous
 62
     7
370
    15
100
AcDbCircle
 10
108.9148780488
 20
1420.0211308585
 30
0.0
 40
8.749999999999952
  0
CIRCLE
  5
16C
330
1F
100
AcDbEntity
  8
0
  6
Continuous
 62
     7
370
    15
100
AcDbCircle
 10
108.9148780488
 20
1420.0211308585
 30
0.0
 40
13.00000000000004
  0
CIRCLE
  5
16D
330
1F
100
AcDbEntity
  8
0
  6
Continuous
 62
     7
370
    15
100
AcDbCircle
 10
108.9148780488
 20
1420.0211308585
 30
0.0
 40
15.00000000000002
  0
CIRCLE
  5
16E
330
1F
100
AcDbEntity
  8
0
  6
Continuous
 62
     7
370
    15
100
AcDbCircle
 10
-591.0851219512
 20
1480.0211308585
 30
0.0
 40
14.99999999999999
  0
CIRCLE
  5
16F
330
1F
100
AcDbEntity
  8
0
  6
Continuous
 62
     7
370
    15
100
AcDbCircle
 10
-591.0851219512
 20
1480.0211308585
 30
0.0
 40
12.99999999999992
  0
CIRCLE
  5
170
330
1F
100
AcDbEntity
  8
0
  6
Continuous
 62
     7
370
    15
100
AcDbCircle
 10
-591.0851219512
 20
1480.0211308585
 30
0.0
 40
8.750000000000078
  0
ARC
  5
171
330
1F
100
AcDbEntity
  8
0
  6
Continuous
 62
     7
370
    15
100
AcDbCircle
 10
-591.0851219512
 20
1480.0211308585
 30
0.0
 40
29.00000000000033
100
AcDbArc
 50
301.1473899215
 51
180.0040336572
  0
ARC
  5
172
330
1F
100
AcDbEntity
  8
0
  6
Continuous
 62
     7
370
    15
100
AcDbCircle
 10
-591.0851219512
 20
1480.0211308585
 30
0.0
 40
29.00000000000018
100
AcDbArc
 50
180.0040336572
 51
238.8526100785
  0
ARC
  5
173
330
1F
100
AcDbEntity
  8
0
  6
Continuous
 62
     7
370
    15
100
AcDbCircle
 10
108.9148780488
 20
1480.0211308585
 30
0.0
 40
29.00000000000028
100
AcDbArc
 50
301.1473899215
 51
180.0040336572
  0
ARC
  5
174
330
1F
100
AcDbEntity
  8
0
  6
Continuous
 62
     7
370
    15
100
AcDbCircle
 10
108.9148780488
 20
1480.0211308585
 30
0.0
 40
29.00000000000024
100
AcDbArc
 50
180.0040336572
 51
238.8526100785
  0
LINE
  5
175
330
1F
100
AcDbEntity
  8
0
  6
Continuous
 62
     7
370
    15
100
AcDbLine
 10
123.9148756646
 20
1480.0211344944
 30
0.0
 11
123.9148756646
 21
1291.0211314545
 31
0.0
  0
LINE
  5
176
330
1F
100
AcDbEntity
  8
0
  6
Continuous
 62
     7
370
    15
100
AcDbLine
 10
93.9149042748
 20
1291.0211314545
 30
0.0
 11
93.9149042748
 21
1480.0211344944
 31
0.0
  0
LINE
  5
177
330
1F
100
AcDbEntity
  8
0
  6
Continuous
 62
     7
370
    15
100
AcDbLine
 10
-576.0851198651
 20
1480.0211344944
 30
0.0
 11
-576.0851198651
 21
1291.0211314545
 31
0.0
  0
LINE
  5
178
330
1F
100
AcDbEntity
  8
0
  6
Continuous
 62
     7
370
    15
100
AcDbLine
 10
-606.0851210572
 20
1291.0211314545
 30
0.0
 11
-606.0851210572
 21
1435.176134585
 31
0.0
  0
LINE
  5
179
330
1F
100
AcDbEntity
  8
0
  6
Continuous
 62
     7
370
    15
100
AcDbLine
 10
-606.0851210572
 20
1447.6661277102
 30
0.0
 11
-606.0851210572
 21
1480.0211344944
 31
0.0
  0
LINE
  5
17A
330
1F
100
AcDbEntity
  8
0
  6
Continuous
 62
     7
370
    15
100
AcDbLine
 10
1261.8592008248
 20
1421.4211315946
 30
0.0
 11
1269.8592021361
 21
1421.4211315946
 31
0.0
  0
LINE
  5
17B
330
1F
100
AcDbEntity
  8
0
  6
Continuous
 62
     7
370
    15
100
AcDbLine
 10
1269.8592021361
 20
1461.4211325632
 30
0.0
 11
1261.8592008248
 21
1461.4211325632
 31
0.0
  0
LINE
  5
17C
330
1F
100
AcDbEntity
  8
0
  6
Continuous
 62
     7
370
    15
100
AcDbLine
 10
1231.0592009917
 20
1457.4211319075
 30
0.0
 11
1229.2592012555
 21
1455.62113124
 31
0.0
  0
LINE
  5
17D
330
1F
100
AcDbEntity
  8
0
  6
Continuous
 62
     7
370
    15
100
AcDbLine
 10
1229.2592012555
 20
1427.2211310552
 30
0.0
 11
1231.0592009917
 21
1425.4211303876
 31
0.0
  0
LINE
  5
17E
330
1F
100
AcDbEntity
  8
0
  6
Continuous
 62
     7
370
    15
100
AcDbLine
 10
1231.0592009917
 20
1425.4211303876
 30
0.0
 11
1261.8592008248
 21
1425.4211303876
 31
0.0
  0
LINE
  5
17F
330
1F
100
AcDbEntity
  8
0
  6
Continuous
 62
     7
370
    15
100
AcDbLine
 10
1261.8592008248
 20
1457.4211319075
 30
0.0
 11
1231.0592009917
 21
1457.4211319075
 31
0.0
  0
LINE
  5
180
330
1F
100
AcDbEntity
  8
0
  6
Continuous
 62
     7
370
    15
100
AcDbLine
 10
1228.7592011735
 20
1433.9211327122
 30
0.0
 11
1229.2592012555
 21
1433.9211327122
 31
0.0
  0
LINE
  5
181
330
1F
100
AcDbEntity
  8
0
  6
Continuous
 62
     7
370
    15
100
AcDbLine
 10
1229.2592012555
 20
1448.9211295829
 30
0.0
 11
1228.7592011735
 21
1448.9211295829
 31
0.0
  0
LINE
  5
182
330
1F
100
AcDbEntity
  8
0
  6
Continuous
 62
     7
370
    15
100
AcDbLine
 10
1227.7592010096
 20
1416.421130775
 30
0.0
 11
1228.7592011735
 21
1417.4211309389
 31
0.0
  0
LINE
  5
183
330
1F
100
AcDbEntity
  8
0
  6
Continuous
 62
     7
370
    15
100
AcDbLine
 10
1228.7592011735
 20
1465.4211332188
 30
0.0
 11
1227.7592010096
 21
1466.4211277948
 31
0.0
  0
LINE
  5
184
330
1F
100
AcDbEntity
  8
0
  6
Continuous
 62
     7
370
    15
100
AcDbLine
 10
1225.7592006818
 20
1416.421130775
 30
0.0
 11
1227.7592010096
 21
1416.421130775
 31
0.0
  0
LINE
  5
185
330
1F
100
AcDbEntity
  8
0
  6
Continuous
 62
     7
370
    15
100
AcDbLine
 10
1227.7592010096
 20
1466.4211277948
 30
0.0
 11
1225.7592006818
 21
1466.4211277948
 31
0.0
  0
LINE
  5
186
330
1F
100
AcDbEntity
  8
0
  6
Continuous
 62
     7
370
    15
100
AcDbLine
 10
1252.7331494958
 20
1305.5211310373
 30
0.0
 11
1251.2331501812
 21
1305.5211310373
 31
0.0
  0
LINE
  5
187
330
1F
100
AcDbEntity
  8
0
  6
Continuous
 62
     7
370
    15
100
AcDbLine
 10
1251.2331501812
 20
1276.5211318718
 30
0.0
 11
1252.7331494958
 21
1276.5211318718
 31
0.0
  0
LINE
  5
188
330
1F
100
AcDbEntity
  8
0
  6
Continuous
 62
     7
370
    15
100
AcDbLine
 10
1252.7331494958
 20
1360.5211307393
 30
0.0
 11
1251.2331501812
 21
1360.5211307393
 31
0.0
  0
LINE
  5
189
330
1F
100
AcDbEntity
  8
0
  6
Continuous
 62
     7
370
    15
100
AcDbLine
 10
1251.2331501812
 20
1331.5211315737
 30
0.0
 11
1252.7331494958
 21
1331.5211315737
 31
0.0
  0
LINE
  5
18A
330
1F
100
AcDbEntity
  8
0
  6
Continuous
 62
     7
370
    15
100
AcDbLine
 10
1243.2331498012
 20
1305.021130024
 30
0.0
 11
1241.2331497062
 21
1305.021130024
 31
0.0
  0
LINE
  5
18B
330
1F
100
AcDbEntity
  8
0
  6
Continuous
 62
     7
370
    15
100
AcDbLine
 10
1241.2331497062
 20
1277.021132885
 30
0.0
 11
1243.2331498012
 21
1277.021132885
 31
0.0
  0
LINE
  5
18C
330
1F
100
AcDbEntity
  8
0
  6
Continuous
 62
     7
370
    15
100
AcDbLine
 10
1243.2331498012
 20
1360.021129726
 30
0.0
 11
1241.2331497062
 21
1360.021129726
 31
0.0
  0
LINE
  5
18D
330
1F
100
AcDbEntity
  8
0
  6
Continuous
 62
     7
370
    15
100
AcDbLine
 10
1241.2331497062
 20
1332.021132587
 30
0.0
 11
1243.2331498012
 21
1332.021132587
 31
0.0
  0
ARC
  5
18E
330
1F
100
AcDbEntity
  8
0
  6
Continuous
 62
     7
370
    15
100
AcDbCircle
 10
1239.3159925137
 20
1276.2211308585
 30
0.0
 40
0.2000000000001302
100
AcDbArc
 50
225.0
 51
270.0
  0
ARC
  5
18F
330
1F
100
AcDbEntity
  8
0
  6
Continuous
 62
     7
370
    15
100
AcDbCircle
 10
1239.3159925137
 20
1305.8211308585
 30
0.0
 40
0.2000000000000455
100
AcDbArc
 50
90.0
 51
135.0
  0
LINE
  5
190
330
1F
100
AcDbEntity
  8
0
  6
Continuous
 62
     7
370
    15
100
AcDbLine
 10
1239.3159926169
 20
1276.0211308585
 30
0.0
 11
1241.0331498132
 21
1276.0211308585
 31
0.0
  0
LINE
  5
191
330
1F
100
AcDbEntity
  8
0
  6
Continuous
 62
     7
370
    15
100
AcDbLine
 10
1241.0331498132
 20
1306.0211320506
 30
0.0
 11
1239.3159926169
 21
1306.0211320506
 31
0.0
  0
ARC
  5
192
330
1F
100
AcDbEntity
  8
0
  6
Continuous
 62
     7
370
    15
100
AcDbCircle
 10
1241.0331498012
 20
1305.8211308585
 30
0.0
 40
0.2000000000000455
100
AcDbArc
 50
0.0
 51
90.0
  0
ARC
  5
193
330
1F
100
AcDbEntity
  8
0
  6
Continuous
 62
     7
370
    15
100
AcDbCircle
 10
1241.0331498012
 20
1276.2211308585
 30
0.0
 40
0.2000000000000455
100
AcDbArc
 50
270.0
 51
0.0
  0
LINE
  5
194
330
1F
100
AcDbEntity
  8
0
  6
Continuous
 62
     7
370
    15
100
AcDbLine
 10
1239.1745712839
 20
1305.9625555859
 30
0.0
 11
1237.291728542
 21
1304.0797119127
 31
0.0
  0
LINE
  5
195
330
1F
100
AcDbEntity
  8
0
  6
Continuous
 62
     7
370
    15
100
AcDbLine
 10
1237.291728542
 20
1277.9625509964
 30
0.0
 11
1239.1745712839
 21
1276.0797073231
 31
0.0
  0
ARC
  5
196
330
1F
100
AcDbEntity
  8
0
  6
Continuous
 62
     7
370
    15
100
AcDbCircle
 10
1237.4331498012
 20
1303.938288146
 30
0.0
 40
0.2000000000000455
100
AcDbArc
 50
135.0
 51
180.0
  0
ARC
  5
197
330
1F
100
AcDbEntity
  8
0
  6
Continuous
 62
     7
370
    15
100
AcDbCircle
 10
1237.4331498012
 20
1278.103973571
 30
0.0
 40
0.2000000000000455
100
AcDbArc
 50
180.0
 51
225.0
  0
LINE
  5
198
330
1F
100
AcDbEntity
  8
0
  6
Continuous
 62
     7
370
    15
100
AcDbLine
 10
1239.3159926169
 20
1331.0211305605
 30
0.0
 11
1241.0331498132
 21
1331.0211305605
 31
0.0
  0
LINE
  5
199
330
1F
100
AcDbEntity
  8
0
  6
Continuous
 62
     7
370
    15
100
AcDbLine
 10
1241.0331498132
 20
1361.0211317526
 30
0.0
 11
1239.3159926169
 21
1361.0211317526
 31
0.0
  0
ARC
  5
19A
330
1F
100
AcDbEntity
  8
0
  6
Continuous
 62
     7
370
    15
100
AcDbCircle
 10
1239.3159925137
 20
1331.2211308585
 30
0.0
 40
0.1999999999998181
100
AcDbArc
 50
225.0
 51
270.0
  0
ARC
  5
19B
330
1F
100
AcDbEntity
  8
0
  6
Continuous
 62
     7
370
    15
100
AcDbCircle
 10
1239.3159925137
 20
1360.8211308585
 30
0.0
 40
0.2000000000000455
100
AcDbArc
 50
90.0
 51
135.0
  0
ARC
  5
19C
330
1F
100
AcDbEntity
  8
0
  6
Continuous
 62
     7
370
    15
100
AcDbCircle
 10
1241.0331498012
 20
1360.8211308585
 30
0.0
 40
0.2000000000000455
100
AcDbArc
 50
0.0
 51
90.0
  0
ARC
  5
19D
330
1F
100
AcDbEntity
  8
0
  6
Continuous
 62
     7
370
    15
100
AcDbCircle
 10
1241.0331498012
 20
1331.2211308585
 30
0.0
 40
0.2000000000000455
100
AcDbArc
 50
270.0
 51
0.0
  0
LINE
  5
19E
330
1F
100
AcDbEntity
  8
0
  6
Continuous
 62
     7
370
    15
100
AcDbLine
 10
1239.1745712839
 20
1360.9625515626
 30
0.0
 11
1237.291728542
 21
1359.0797078894
 31
0.0
  0
LINE
  5
19F
330
1F
100
AcDbEntity
  8
0
  6
Continuous
 62
     7
370
    15
100
AcDbLine
 10
1237.291728542
 20
1332.9625506983
 30
0.0
 11
1239.1745712839
 21
1331.0797070251
 31
0.0
  0
ARC
  5
1A0
330
1F
100
AcDbEntity
  8
0
  6
Continuous
 62
     7
370
    15
100
AcDbCircle
 10
1237.4331498012
 20
1358.938288146
 30
0.0
 40
0.2000000000000455
100
AcDbArc
 50
135.0
 51
180.0
  0
ARC
  5
1A1
330
1F
100
AcDbEntity
  8
0
  6
Continuous
 62
     7
370
    15
100
AcDbCircle
 10
1237.4331498012
 20
1333.103973571
 30
0.0
 40
0.2000000000000455
100
AcDbArc
 50
180.0
 51
225.0
  0
ARC
  5
1A2
330
1F
100
AcDbEntity
  8
0
  6
Continuous
 62
     7
370
    15
100
AcDbCircle
 10
1270.0592012245
 20
1426.6211308585
 30
0.0
 40
0.2000000000000455
100
AcDbArc
 50
180.0
 51
270.0
  0
ARC
  5
1A3
330
1F
100
AcDbEntity
  8
0
  6
Continuous
 62
     7
370
    15
100
AcDbCircle
 10
1270.0592012245
 20
1456.2211308585
 30
0.0
 40
0.2000000000000455
100
AcDbArc
 50
90.0
 51
180.0
  0
LINE
  5
1A4
330
1F
100
AcDbEntity
  8
0
  6
Continuous
 62
     7
370
    15
100
AcDbLine
 10
1271.7763575957
 20
1456.421129881
 30
0.0
 11
1270.0592017964
 21
1456.421129881
 31
0.0
  0
LINE
  5
1A5
330
1F
100
AcDbEntity
  8
0
  6
Continuous
 62
     7
370
    15
100
AcDbLine
 10
1270.0592017964
 20
1426.4211305515
 30
0.0
 11
1271.7763575957
 21
1426.4211305515
 31
0.0
  0
ARC
  5
1A6
330
1F
100
AcDbEntity
  8
0
  6
Continuous
 62
     7
370
    15
100
AcDbCircle
 10
1271.776358512
 20
1456.2211308585
 30
0.0
 40
0.2000000000000455
100
AcDbArc
 50
45.0
 51
90.0
  0
ARC
  5
1A7
330
1F
100
AcDbEntity
  8
0
  6
Continuous
 62
     7
370
    15
100
AcDbCircle
 10
1271.776358512
 20
1426.6211308585
 30
0.0
 40
0.2000000000001302
100
AcDbArc
 50
270.0
 51
315.0
  0
LINE
  5
1A8
330
1F
100
AcDbEntity
  8
0
  6
Continuous
 62
     7
370
    15
100
AcDbLine
 10
1271.9177807913
 20
1426.4797088788
 30
0.0
 11
1273.8006226018
 21
1428.362552552
 31
0.0
  0
LINE
  5
1A9
330
1F
100
AcDbEntity
  8
0
  6
Continuous
 62
     7
370
    15
100
AcDbLine
 10
1273.8006226018
 20
1454.4797097431
 30
0.0
 11
1271.9177807913
 21
1456.3625534163
 31
0.0
  0
ARC
  5
1AA
330
1F
100
AcDbEntity
  8
0
  6
Continuous
 62
     7
370
    15
100
AcDbCircle
 10
1273.6592012245
 20
1428.503973571
 30
0.0
 40
0.2000000000000455
100
AcDbArc
 50
315.0
 51
0.0
  0
ARC
  5
1AB
330
1F
100
AcDbEntity
  8
0
  6
Continuous
 62
     7
370
    15
100
AcDbCircle
 10
1273.6592012245
 20
1454.338288146
 30
0.0
 40
0.2000000000000455
100
AcDbArc
 50
0.0
 51
45.0
  0
LINE
  5
1AC
330
1F
100
AcDbEntity
  8
0
  6
Continuous
 62
     7
370
    15
100
AcDbLine
 10
1252.9331500873
 20
1306.0211320506
 30
0.0
 11
1252.7331494958
 21
1305.821128665
 31
0.0
  0
LINE
  5
1AD
330
1F
100
AcDbEntity
  8
0
  6
Continuous
 62
     7
370
    15
100
AcDbLine
 10
1252.7331494958
 20
1276.221134244
 30
0.0
 11
1252.9331500873
 21
1276.0211308585
 31
0.0
  0
LINE
  5
1AE
330
1F
100
AcDbEntity
  8
0
  6
Continuous
 62
     7
370
    15
100
AcDbLine
 10
1262.03314953
 20
1306.0211320506
 30
0.0
 11
1252.9331500873
 21
1306.0211320506
 31
0.0
  0
LINE
  5
1AF
330
1F
100
AcDbEntity
  8
0
  6
Continuous
 62
     7
370
    15
100
AcDbLine
 10
1252.9331500873
 20
1276.0211308585
 30
0.0
 11
1262.03314953
 21
1276.0211308585
 31
0.0
  0
LINE
  5
1B0
330
1F
100
AcDbEntity
  8
0
  6
Continuous
 62
     7
370
    15
100
AcDbLine
 10
1262.03314953
 20
1276.0211308585
 30
0.0
 11
1262.2331491903
 21
1276.221134244
 31
0.0
  0
LINE
  5
1B1
330
1F
100
AcDbEntity
  8
0
  6
Continuous
 62
     7
370
    15
100
AcDbLine
 10
1262.2331491903
 20
1305.821128665
 30
0.0
 11
1262.03314953
 21
1306.0211320506
 31
0.0
  0
LINE
  5
1B2
330
1F
100
AcDbEntity
  8
0
  6
Continuous
 62
     7
370
    15
100
AcDbLine
 10
1252.9331500873
 20
1361.0211317526
 30
0.0
 11
1252.7331494958
 21
1360.8211320923
 31
0.0
  0
LINE
  5
1B3
330
1F
100
AcDbEntity
  8
0
  6
Continuous
 62
     7
370
    15
100
AcDbLine
 10
1252.7331494958
 20
1331.221133946
 30
0.0
 11
1252.9331500873
 21
1331.0211305605
 31
0.0
  0
LINE
  5
1B4
330
1F
100
AcDbEntity
  8
0
  6
Continuous
 62
     7
370
    15
100
AcDbLine
 10
1262.03314953
 20
1361.0211317526
 30
0.0
 11
1252.9331500873
 21
1361.0211317526
 31
0.0
  0
LINE
  5
1B5
330
1F
100
AcDbEntity
  8
0
  6
Continuous
 62
     7
370
    15
100
AcDbLine
 10
1252.9331500873
 20
1331.0211305605
 30
0.0
 11
1262.03314953
 21
1331.0211305605
 31
0.0
  0
LINE
  5
1B6
330
1F
100
AcDbEntity
  8
0
  6
Continuous
 62
     7
370
    15
100
AcDbLine
 10
1262.03314953
 20
1331.0211305605
 30
0.0
 11
1262.2331491903
 21
1331.221133946
 31
0.0
  0
LINE
  5
1B7
330
1F
100
AcDbEntity
  8
0
  6
Continuous
 62
     7
370
    15
100
AcDbLine
 10
1262.2331491903
 20
1360.8211320923
 30
0.0
 11
1262.03314953
 21
1361.0211317526
 31
0.0
  0
LINE
  5
1B8
330
1F
100
AcDbEntity
  8
0
  6
Continuous
 62
     7
370
    15
100
AcDbLine
 10
1271.2331506655
 20
1306.0211320506
 30
0.0
 11
1268.2331501738
 21
1306.0211320506
 31
0.0
  0
LINE
  5
1B9
330
1F
100
AcDbEntity
  8
0
  6
Continuous
 62
     7
370
    15
100
AcDbLine
 10
1268.2331501738
 20
1276.0211308585
 30
0.0
 11
1271.2331506655
 21
1276.0211308585
 31
0.0
  0
LINE
  5
1BA
330
1F
100
AcDbEntity
  8
0
  6
Continuous
 62
     7
370
    15
100
AcDbLine
 10
1271.2331506655
 20
1276.0211308585
 30
0.0
 11
1273.2331491307
 21
1278.021127461
 31
0.0
  0
LINE
  5
1BB
330
1F
100
AcDbEntity
  8
0
  6
Continuous
 62
     7
370
    15
100
AcDbLine
 10
1273.2331491307
 20
1304.0211279975
 30
0.0
 11
1271.2331506655
 21
1306.0211320506
 31
0.0
  0
LINE
  5
1BC
330
1F
100
AcDbEntity
  8
0
  6
Continuous
 62
     7
370
    15
100
AcDbLine
 10
1271.2331506655
 20
1361.0211317526
 30
0.0
 11
1268.2331501738
 21
1361.0211317526
 31
0.0
  0
LINE
  5
1BD
330
1F
100
AcDbEntity
  8
0
  6
Continuous
 62
     7
370
    15
100
AcDbLine
 10
1268.2331501738
 20
1331.0211305605
 30
0.0
 11
1271.2331506655
 21
1331.0211305605
 31
0.0
  0
LINE
  5
1BE
330
1F
100
AcDbEntity
  8
0
  6
Continuous
 62
     7
370
    15
100
AcDbLine
 10
1271.2331506655
 20
1331.0211305605
 30
0.0
 11
1273.2331491307
 21
1333.021127163
 31
0.0
  0
LINE
  5
1BF
330
1F
100
AcDbEntity
  8
0
  6
Continuous
 62
     7
370
    15
100
AcDbLine
 10
1273.2331491307
 20
1359.0211314247
 30
0.0
 11
1271.2331506655
 21
1361.0211317526
 31
0.0
  0
LINE
  5
1C0
330
1F
100
AcDbEntity
  8
0
  6
Continuous
 62
     7
370
    15
100
AcDbLine
 10
1268.2331501738
 20
1405.0211310485
 30
0.0
 11
1271.2331506655
 21
1405.0211310485
 31
0.0
  0
LINE
  5
1C1
330
1F
100
AcDbEntity
  8
0
  6
Continuous
 62
     7
370
    15
100
AcDbLine
 10
1271.2331506655
 20
1405.0211310485
 30
0.0
 11
1273.2331491307
 21
1407.0211309106
 31
0.0
  0
LINE
  5
1C2
330
1F
100
AcDbEntity
  8
0
  6
Continuous
 62
     7
370
    15
100
AcDbLine
 10
1271.2331506655
 20
1495.0211276398
 30
0.0
 11
1268.2331501738
 21
1495.0211276398
 31
0.0
  0
LINE
  5
1C3
330
1F
100
AcDbEntity
  8
0
  6
Continuous
 62
     7
370
    15
100
AcDbLine
 10
1268.2331501738
 20
1465.0211338983
 30
0.0
 11
1271.2331506655
 21
1465.0211338983
 31
0.0
  0
LINE
  5
1C4
330
1F
100
AcDbEntity
  8
0
  6
Continuous
 62
     7
370
    15
100
AcDbLine
 10
1271.2331506655
 20
1465.0211338983
 30
0.0
 11
1273.2331491307
 21
1467.0211305009
 31
0.0
  0
LINE
  5
1C5
330
1F
100
AcDbEntity
  8
0
  6
Continuous
 62
     7
370
    15
100
AcDbLine
 10
1273.2331491307
 20
1493.0211310373
 30
0.0
 11
1271.2331506655
 21
1495.0211276398
 31
0.0
  0
LINE
  5
1C6
330
1F
100
AcDbEntity
  8
0
  6
Continuous
 62
     7
370
    15
100
AcDbLine
 10
1233.2331500248
 20
1413.0211309628
 30
0.0
 11
1234.2331501887
 21
1412.0211307989
 31
0.0
  0
LINE
  5
1C7
330
1F
100
AcDbEntity
  8
0
  6
Continuous
 62
     7
370
    15
100
AcDbLine
 10
1234.2331501887
 20
1412.0211307989
 30
0.0
 11
1262.03314953
 21
1412.0211307989
 31
0.0
  0
LINE
  5
1C8
330
1F
100
AcDbEntity
  8
0
  6
Continuous
 62
     7
370
    15
100
AcDbLine
 10
1262.03314953
 20
1412.0211307989
 30
0.0
 11
1262.2331491903
 21
1412.2211304591
 31
0.0
  0
ARC
  5
1C9
330
1F
100
AcDbEntity
  8
0
  6
Continuous
 62
     7
370
    15
100
AcDbCircle
 10
1233.3159925137
 20
1465.2211308585
 30
0.0
 40
0.2000000000000455
100
AcDbArc
 50
225.0
 51
270.0
  0
ARC
  5
1CA
330
1F
100
AcDbEntity
  8
0
  6
Continuous
 62
     7
370
    15
100
AcDbCircle
 10
1233.3159925137
 20
1494.8211308585
 30
0.0
 40
0.2000000000002728
100
AcDbArc
 50
90.0
 51
135.0
  0
ARC
  5
1CB
330
1F
100
AcDbEntity
  8
0
  6
Continuous
 62
     7
370
    15
100
AcDbCircle
 10
1234.0331498012
 20
1494.8211308585
 30
0.0
 40
0.2000000000002728
100
AcDbArc
 50
0.0
 51
90.0
  0
ARC
  5
1CC
330
1F
100
AcDbEntity
  8
0
  6
Continuous
 62
     7
370
    15
100
AcDbCircle
 10
1234.0331498012
 20
1465.2211308585
 30
0.0
 40
0.2000000000002728
100
AcDbArc
 50
270.0
 51
0.0
  0
LINE
  5
1CD
330
1F
100
AcDbEntity
  8
0
  6
Continuous
 62
     7
370
    15
100
AcDbLine
 10
1233.3159920991
 20
1465.0211338983
 30
0.0
 11
1234.0331495971
 21
1465.0211338983
 31
0.0
  0
LINE
  5
1CE
330
1F
100
AcDbEntity
  8
0
  6
Continuous
 62
     7
370
    15
100
AcDbLine
 10
1234.0331495971
 20
1495.0211276398
 30
0.0
 11
1233.3159920991
 21
1495.0211276398
 31
0.0
  0
LINE
  5
1CF
330
1F
100
AcDbEntity
  8
0
  6
Continuous
 62
     7
370
    15
100
AcDbLine
 10
1233.1745707661
 20
1494.9625511752
 30
0.0
 11
1231.2917280242
 21
1493.0797075019
 31
0.0
  0
LINE
  5
1D0
330
1F
100
AcDbEntity
  8
0
  6
Continuous
 62
     7
370
    15
100
AcDbLine
 10
1231.2917280242
 20
1466.9625540362
 30
0.0
 11
1233.1745707661
 21
1465.079710363
 31
0.0
  0
ARC
  5
1D1
330
1F
100
AcDbEntity
  8
0
  6
Continuous
 62
     7
370
    15
100
AcDbCircle
 10
1231.4331498012
 20
1492.938288146
 30
0.0
 40
0.2000000000001302
100
AcDbArc
 50
135.0
 51
180.0
  0
ARC
  5
1D2
330
1F
100
AcDbEntity
  8
0
  6
Continuous
 62
     7
370
    15
100
AcDbCircle
 10
1231.4331498012
 20
1467.103973571
 30
0.0
 40
0.2000000000000455
100
AcDbArc
 50
180.0
 51
225.0
  0
LINE
  5
1D3
330
1F
100
AcDbEntity
  8
0
  6
Continuous
 62
     7
370
    15
100
AcDbLine
 10
1234.7331493393
 20
1489.7711281763
 30
0.0
 11
1234.2331501887
 21
1489.7711281763
 31
0.0
  0
LINE
  5
1D4
330
1F
100
AcDbEntity
  8
0
  6
Continuous
 62
     7
370
    15
100
AcDbLine
 10
1234.2331501887
 20
1470.2711333619
 30
0.0
 11
1234.7331493393
 21
1470.2711333619
 31
0.0
  0
LINE
  5
1D5
330
1F
100
AcDbEntity
  8
0
  6
Continuous
 62
     7
370
    15
100
AcDbLine
 10
1255.7331499875
 20
1509.0211336599
 30
0.0
 11
1254.2331497416
 21
1509.0211336599
 31
0.0
  0
LINE
  5
1D6
330
1F
100
AcDbEntity
  8
0
  6
Continuous
 62
     7
370
    15
100
AcDbLine
 10
1236.2331495852
 20
1509.0211336599
 30
0.0
 11
1234.7331493393
 21
1509.0211336599
 31
0.0
  0
ARC
  5
1D7
330
1F
100
AcDbEntity
  8
0
  6
Continuous
 62
     7
370
    15
100
AcDbCircle
 10
1245.2592012245
 20
1518.6211308585
 30
0.0
 40
12.49999999999991
100
AcDbArc
 50
230.1746287392
 51
309.8253712608
  0
LINE
  5
1D8
330
1F
100
AcDbEntity
  8
0
  6
Continuous
 62
     7
370
    15
100
AcDbLine
 10
1237.2535783098
 20
1509.0211336599
 30
0.0
 11
1236.2331495852
 21
1509.0211336599
 31
0.0
  0
LINE
  5
1D9
330
1F
100
AcDbEntity
  8
0
  6
Continuous
 62
     7
370
    15
100
AcDbLine
 10
1254.2331497416
 20
1509.0211336599
 30
0.0
 11
1253.2648238585
 21
1509.0211336599
 31
0.0
  0
LINE
  5
1DA
330
1F
100
AcDbEntity
  8
0
  6
Continuous
 62
     7
370
    15
100
AcDbLine
 10
1266.8831496731
 20
1276.0211308585
 30
0.0
 11
1268.2331501738
 21
1276.0211308585
 31
0.0
  0
LINE
  5
1DB
330
1F
100
AcDbEntity
  8
0
  6
Continuous
 62
     7
370
    15
100
AcDbLine
 10
1262.2331491903
 20
1276.0211308585
 30
0.0
 11
1263.6037728981
 21
1276.0211308585
 31
0.0
  0
LINE
  5
1DC
330
1F
100
AcDbEntity
  8
0
  6
Continuous
 62
     7
370
    15
100
AcDbLine
 10
1268.2331501738
 20
1495.0211276398
 30
0.0
 11
1262.2331491903
 21
1495.0211276398
 31
0.0
  0
LINE
  5
1DD
330
1F
100
AcDbEntity
  8
0
  6
Continuous
 62
     7
370
    15
100
AcDbLine
 10
1261.9331496999
 20
1495.0211276398
 30
0.0
 11
1256.5331495598
 21
1495.0211276398
 31
0.0
  0
LINE
  5
1DE
330
1F
100
AcDbEntity
  8
0
  6
Continuous
 62
     7
370
    15
100
AcDbLine
 10
1256.5331495598
 20
1465.0211338983
 30
0.0
 11
1261.9331496999
 21
1465.0211338983
 31
0.0
  0
LINE
  5
1DF
330
1F
100
AcDbEntity
  8
0
  6
Continuous
 62
     7
370
    15
100
AcDbLine
 10
1256.5331495598
 20
1495.0211276398
 30
0.0
 11
1256.2331500695
 21
1494.7211300121
 31
0.0
  0
LINE
  5
1E0
330
1F
100
AcDbEntity
  8
0
  6
Continuous
 62
     7
370
    15
100
AcDbLine
 10
1256.2331500695
 20
1465.3211315261
 30
0.0
 11
1256.5331495598
 21
1465.0211338983
 31
0.0
  0
LINE
  5
1E1
330
1F
100
AcDbEntity
  8
0
  6
Continuous
 62
     7
370
    15
100
AcDbLine
 10
1261.9331496999
 20
1465.0211338983
 30
0.0
 11
1262.2331491903
 21
1465.3211315261
 31
0.0
  0
LINE
  5
1E2
330
1F
100
AcDbEntity
  8
0
  6
Continuous
 62
     7
370
    15
100
AcDbLine
 10
1262.2331491903
 20
1494.7211300121
 30
0.0
 11
1261.9331496999
 21
1495.0211276398
 31
0.0
  0
LINE
  5
1E3
330
1F
100
AcDbEntity
  8
0
  6
Continuous
 62
     7
370
    15
100
AcDbLine
 10
1256.2331500695
 20
1489.7711281763
 30
0.0
 11
1255.7331499875
 21
1489.7711281763
 31
0.0
  0
LINE
  5
1E4
330
1F
100
AcDbEntity
  8
0
  6
Continuous
 62
     7
370
    15
100
AcDbLine
 10
1255.7331499875
 20
1470.2711333619
 30
0.0
 11
1256.2331500695
 21
1470.2711333619
 31
0.0
  0
LINE
  5
1E5
330
1F
100
AcDbEntity
  8
0
  6
Continuous
 62
     7
370
    15
100
AcDbLine
 10
1251.2331501812
 20
1399.0211307635
 30
0.0
 11
1243.2331498012
 21
1399.0211307635
 31
0.0
  0
LINE
  5
1E6
330
1F
100
AcDbEntity
  8
0
  6
Continuous
 62
     7
370
    15
100
AcDbLine
 10
1243.2331498012
 20
1401.0211308585
 30
0.0
 11
1251.2331501812
 21
1401.0211308585
 31
0.0
  0
LINE
  5
1E7
330
1F
100
AcDbEntity
  8
0
  6
Continuous
 62
     7
370
    15
100
AcDbLine
 10
1251.2331501812
 20
1401.0211308585
 30
0.0
 11
1251.2331501812
 21
1399.0211307635
 31
0.0
  0
LINE
  5
1E8
330
1F
100
AcDbEntity
  8
0
  6
Continuous
 62
     7
370
    15
100
AcDbLine
 10
1243.2331498012
 20
1399.0211307635
 30
0.0
 11
1243.2331498012
 21
1401.0211308585
 31
0.0
  0
LINE
  5
1E9
330
1F
100
AcDbEntity
  8
0
  6
Continuous
 62
     7
370
    15
100
AcDbLine
 10
1251.2331501812
 20
1399.0211307635
 30
0.0
 11
1251.2331501812
 21
-646.9789664163
 31
0.0
  0
LINE
  5
1EA
330
1F
100
AcDbEntity
  8
0
  6
Continuous
 62
     7
370
    15
100
AcDbLine
 10
1243.2331498012
 20
-646.9789664163
 30
0.0
 11
1251.2331501812
 21
-646.9789664163
 31
0.0
  0
LINE
  5
1EB
330
1F
100
AcDbEntity
  8
0
  6
Continuous
 62
     7
370
    15
100
AcDbLine
 10
1243.2331498012
 20
1399.0211307635
 30
0.0
 11
1243.2331498012
 21
-646.9789664163
 31
0.0
  0
LINE
  5
1EC
330
1F
100
AcDbEntity
  8
0
  6
Continuous
 62
     7
370
    15
100
AcDbLine
 10
1251.2331501812
 20
-648.9788214578
 30
0.0
 11
1243.2331498012
 21
-648.9788214578
 31
0.0
  0
LINE
  5
1ED
330
1F
100
AcDbEntity
  8
0
  6
Continuous
 62
     7
370
    15
100
AcDbLine
 10
1251.2331501812
 20
-646.9789664163
 30
0.0
 11
1251.2331501812
 21
-648.9788214578
 31
0.0
  0
LINE
  5
1EE
330
1F
100
AcDbEntity
  8
0
  6
Continuous
 62
     7
370
    15
100
AcDbLine
 10
1243.2331498012
 20
-648.9788214578
 30
0.0
 11
1243.2331498012
 21
-646.9789664163
 31
0.0
  0
LINE
  5
1EF
330
1F
100
AcDbEntity
  8
0
  6
Continuous
 62
     7
370
    15
100
AcDbLine
 10
1269.8592021361
 20
1461.4211325632
 30
0.0
 11
1269.8592021361
 21
1421.4211315946
 31
0.0
  0
LINE
  5
1F0
330
1F
100
AcDbEntity
  8
0
  6
Continuous
 62
     7
370
    15
100
AcDbLine
 10
1261.8592008248
 20
1461.4211325632
 30
0.0
 11
1261.8592008248
 21
1421.4211315946
 31
0.0
  0
LINE
  5
1F1
330
1F
100
AcDbEntity
  8
0
  6
Continuous
 62
     7
370
    15
100
AcDbLine
 10
1231.0592009917
 20
1457.4211319075
 30
0.0
 11
1231.0592009917
 21
1425.4211303876
 31
0.0
  0
LINE
  5
1F2
330
1F
100
AcDbEntity
  8
0
  6
Continuous
 62
     7
370
    15
100
AcDbLine
 10
1229.2592012555
 20
1427.2211310552
 30
0.0
 11
1229.2592012555
 21
1455.62113124
 31
0.0
  0
LINE
  5
1F3
330
1F
100
AcDbEntity
  8
0
  6
Continuous
 62
     7
370
    15
100
AcDbLine
 10
1232.6592010677
 20
1441.4211292849
 30
0.0
 11
1232.8647318528
 21
1442.8413179801
 31
0.0
  0
SPLINE
  5
1F4
330
1F
100
AcDbEntity
  8
0
  6
Continuous
 62
     7
370
    15
100
AcDbSpline
210
0.0
220
0.0
230
1.0
 70
     8
 71
     3
 72
     9
 73
     5
 74
     0
 42
0.00000001
 43
0.00000001
 40
0.0
 40
0.0
 40
0.0
 40
0.0
 40
0.4159477389011764
 40
1.0
 40
1.0
 40
1.0
 40
1.0
 10
1233.030677703063
 20
1438.838780401768
 30
0.0
 10
1232.923786722531
 20
1439.182575874767
 30
0.0
 10
1232.666804966086
 20
1440.009111135921
 30
0.0
 10
1232.662004683579
 20
1440.900507325097
 30
0.0
 10
1232.659201067727
 20
1441.42112928492
 30
0.0
  0
LINE
  5
1F5
330
1F
100
AcDbEntity
  8
0
  6
Continuous
 62
     7
370
    15
100
AcDbLine
 10
1228.7592011735
 20
1465.4211332188
 30
0.0
 11
1228.7592011735
 21
1417.4211309389
 31
0.0
  0
LINE
  5
1F6
330
1F
100
AcDbEntity
  8
0
  6
Continuous
 62
     7
370
    15
100
AcDbLine
 10
1227.7592010096
 20
1416.421130775
 30
0.0
 11
1227.7592010096
 21
1466.4211277948
 31
0.0
  0
LINE
  5
1F7
330
1F
100
AcDbEntity
  8
0
  6
Continuous
 62
     7
370
    15
100
AcDbLine
 10
1225.7592006818
 20
1466.4211277948
 30
0.0
 11
1225.7592006818
 21
1416.421130775
 31
0.0
  0
CIRCLE
  5
1F8
330
1F
100
AcDbEntity
  8
0
  6
Continuous
 62
     7
370
    15
100
AcDbCircle
 10
1245.2592012245
 20
1441.4211308585
 30
0.0
 40
12.49999999999965
  0
CIRCLE
  5
1F9
330
1F
100
AcDbEntity
  8
0
  6
Continuous
 62
     7
370
    15
100
AcDbCircle
 10
1245.2592012245
 20
1441.4211308585
 30
0.0
 40
12.29999999999966
  0
LINE
  5
1FA
330
1F
100
AcDbEntity
  8
0
  6
Continuous
 62
     7
370
    15
100
AcDbLine
 10
1242.7331497775
 20
-638.9788309945
 30
0.0
 11
1239.7331496932
 21
-638.9788309945
 31
0.0
  0
LINE
  5
1FB
330
1F
100
AcDbEntity
  8
0
  6
Continuous
 62
     7
370
    15
100
AcDbLine
 10
1242.7331497775
 20
-638.9788309945
 30
0.0
 11
1242.7331497775
 21
-652.9787699594
 31
0.0
  0
LINE
  5
1FC
330
1F
100
AcDbEntity
  8
0
  6
Continuous
 62
     7
370
    15
100
AcDbLine
 10
1251.7331502632
 20
-638.9788309945
 30
0.0
 11
1251.7331502632
 21
-652.9787699594
 31
0.0
  0
LINE
  5
1FD
330
1F
100
AcDbEntity
  8
0
  6
Continuous
 62
     7
370
    15
100
AcDbLine
 10
1254.7331498236
 20
-638.9788309945
 30
0.0
 11
1251.7331502632
 21
-638.9788309945
 31
0.0
  0
LINE
  5
1FE
330
1F
100
AcDbEntity
  8
0
  6
Continuous
 62
     7
370
    15
100
AcDbLine
 10
1254.9331494838
 20
-639.4787947549
 30
0.0
 11
1254.9331494838
 21
-653.1788031473
 31
0.0
  0
LINE
  5
1FF
330
1F
100
AcDbEntity
  8
0
  6
Continuous
 62
     7
370
    15
100
AcDbLine
 10
1254.9331494838
 20
-653.1788031473
 30
0.0
 11
1254.7331498236
 21
-652.9787699594
 31
0.0
  0
LINE
  5
200
330
1F
100
AcDbEntity
  8
0
  6
Continuous
 62
     7
370
    15
100
AcDbLine
 10
1254.7331498236
 20
-652.9787699594
 30
0.0
 11
1254.7331498236
 21
-639.4787947549
 31
0.0
  0
LINE
  5
201
330
1F
100
AcDbEntity
  8
0
  6
Continuous
 62
     7
370
    15
100
AcDbLine
 10
1254.9331494838
 20
-639.4787947549
 30
0.0
 11
1254.7331498236
 21
-639.4787947549
 31
0.0
  0
LINE
  5
202
330
1F
100
AcDbEntity
  8
0
  6
Continuous
 62
     7
370
    15
100
AcDbLine
 10
1239.7331496932
 20
-652.9787699594
 30
0.0
 11
1254.7331498236
 21
-652.9787699594
 31
0.0
  0
LINE
  5
203
330
1F
100
AcDbEntity
  8
0
  6
Continuous
 62
     7
370
    15
100
AcDbLine
 10
1254.9331494838
 20
-653.1788031473
 30
0.0
 11
1239.5331498001
 21
-653.1788031473
 31
0.0
  0
LINE
  5
204
330
1F
100
AcDbEntity
  8
0
  6
Continuous
 62
     7
370
    15
100
AcDbLine
 10
1239.7331496932
 20
-652.9787699594
 30
0.0
 11
1239.5331498001
 21
-653.1788031473
 31
0.0
  0
LINE
  5
205
330
1F
100
AcDbEntity
  8
0
  6
Continuous
 62
     7
370
    15
100
AcDbLine
 10
1237.433149875
 20
-656.7789236917
 30
0.0
 11
1237.433149875
 21
-656.9789568796
 31
0.0
  0
LINE
  5
206
330
1F
100
AcDbEntity
  8
0
  6
Continuous
 62
     7
370
    15
100
AcDbLine
 10
1237.2331497491
 20
-656.7789236917
 30
0.0
 11
1237.433149875
 21
-656.9789568796
 31
0.0
  0
LINE
  5
207
330
1F
100
AcDbEntity
  8
0
  6
Continuous
 62
     7
370
    15
100
AcDbLine
 10
1237.433149875
 20
-656.7789236917
 30
0.0
 11
1237.2331497491
 21
-656.7789236917
 31
0.0
  0
LINE
  5
208
330
1F
100
AcDbEntity
  8
0
  6
Continuous
 62
     7
370
    15
100
AcDbLine
 10
1239.7331496932
 20
-639.4787947549
 30
0.0
 11
1239.7331496932
 21
-652.9787699594
 31
0.0
  0
LINE
  5
209
330
1F
100
AcDbEntity
  8
0
  6
Continuous
 62
     7
370
    15
100
AcDbLine
 10
1239.5331498001
 20
-653.1788031473
 30
0.0
 11
1239.5331498001
 21
-639.4787947549
 31
0.0
  0
LINE
  5
20A
330
1F
100
AcDbEntity
  8
0
  6
Continuous
 62
     7
370
    15
100
AcDbLine
 10
1239.7331496932
 20
-639.4787947549
 30
0.0
 11
1239.5331498001
 21
-639.4787947549
 31
0.0
  0
LINE
  5
20B
330
1F
100
AcDbEntity
  8
0
  6
Continuous
 62
     7
370
    15
100
AcDbLine
 10
1254.9331494838
 20
-636.978975953
 30
0.0
 11
1254.9331494838
 21
-639.4787947549
 31
0.0
  0
LINE
  5
20C
330
1F
100
AcDbEntity
  8
0
  6
Continuous
 62
     7
370
    15
100
AcDbLine
 10
1257.0331496418
 20
-636.978975953
 30
0.0
 11
1254.9331494838
 21
-636.978975953
 31
0.0
  0
LINE
  5
20D
330
1F
100
AcDbEntity
  8
0
  6
Continuous
 62
     7
370
    15
100
AcDbLine
 10
1257.0331496418
 20
-639.4787947549
 30
0.0
 11
1257.0331496418
 21
-636.978975953
 31
0.0
  0
LINE
  5
20E
330
1F
100
AcDbEntity
  8
0
  6
Continuous
 62
     7
370
    15
100
AcDbLine
 10
1257.0331496418
 20
-639.4787947549
 30
0.0
 11
1254.9331494838
 21
-639.4787947549
 31
0.0
  0
LINE
  5
20F
330
1F
100
AcDbEntity
  8
0
  6
Continuous
 62
     7
370
    15
100
AcDbLine
 10
1237.433149875
 20
-656.7789236917
 30
0.0
 11
1257.0331496418
 21
-656.7789236917
 31
0.0
  0
LINE
  5
210
330
1F
100
AcDbEntity
  8
0
  6
Continuous
 62
     7
370
    15
100
AcDbLine
 10
1257.0331496418
 20
-656.7789236917
 30
0.0
 11
1257.0331496418
 21
-656.9789568796
 31
0.0
  0
LINE
  5
211
330
1F
100
AcDbEntity
  8
0
  6
Continuous
 62
     7
370
    15
100
AcDbLine
 10
1257.0331496418
 20
-656.9789568796
 30
0.0
 11
1237.433149875
 21
-656.9789568796
 31
0.0
  0
LINE
  5
212
330
1F
100
AcDbEntity
  8
0
  6
Continuous
 62
     7
370
    15
100
AcDbLine
 10
1257.2331502334
 20
-639.4787947549
 30
0.0
 11
1257.2331502334
 21
-656.7789236917
 31
0.0
  0
LINE
  5
213
330
1F
100
AcDbEntity
  8
0
  6
Continuous
 62
     7
370
    15
100
AcDbLine
 10
1257.0331496418
 20
-656.7789236917
 30
0.0
 11
1257.2331502334
 21
-656.7789236917
 31
0.0
  0
LINE
  5
214
330
1F
100
AcDbEntity
  8
0
  6
Continuous
 62
     7
370
    15
100
AcDbLine
 10
1257.0331496418
 20
-656.7789236917
 30
0.0
 11
1257.0331496418
 21
-639.4787947549
 31
0.0
  0
LINE
  5
215
330
1F
100
AcDbEntity
  8
0
  6
Continuous
 62
     7
370
    15
100
AcDbLine
 10
1257.2331502334
 20
-639.4787947549
 30
0.0
 11
1257.0331496418
 21
-639.4787947549
 31
0.0
  0
LINE
  5
216
330
1F
100
AcDbEntity
  8
0
  6
Continuous
 62
     7
370
    15
100
AcDbLine
 10
1254.7331498236
 20
-639.4787947549
 30
0.0
 11
1254.7331498236
 21
-637.1787707223
 31
0.0
  0
LINE
  5
217
330
1F
100
AcDbEntity
  8
0
  6
Continuous
 62
     7
370
    15
100
AcDbLine
 10
1254.9331494838
 20
-636.978975953
 30
0.0
 11
1254.7331498236
 21
-637.1787707223
 31
0.0
  0
LINE
  5
218
330
1F
100
AcDbEntity
  8
0
  6
Continuous
 62
     7
370
    15
100
AcDbLine
 10
1237.433149875
 20
-636.978975953
 30
0.0
 11
1237.433149875
 21
-639.4787947549
 31
0.0
  0
LINE
  5
219
330
1F
100
AcDbEntity
  8
0
  6
Continuous
 62
     7
370
    15
100
AcDbLine
 10
1237.433149875
 20
-639.4787947549
 30
0.0
 11
1237.2331497491
 21
-639.4787947549
 31
0.0
  0
LINE
  5
21A
330
1F
100
AcDbEntity
  8
0
  6
Continuous
 62
     7
370
    15
100
AcDbLine
 10
1237.2331497491
 20
-639.4787947549
 30
0.0
 11
1237.2331497491
 21
-637.1787707223
 31
0.0
  0
LINE
  5
21B
330
1F
100
AcDbEntity
  8
0
  6
Continuous
 62
     7
370
    15
100
AcDbLine
 10
1237.433149875
 20
-636.978975953
 30
0.0
 11
1237.2331497491
 21
-637.1787707223
 31
0.0
  0
LINE
  5
21C
330
1F
100
AcDbEntity
  8
0
  6
Continuous
 62
     7
370
    15
100
AcDbLine
 10
1237.433149875
 20
-639.4787947549
 30
0.0
 11
1237.433149875
 21
-656.7789236917
 31
0.0
  0
LINE
  5
21D
330
1F
100
AcDbEntity
  8
0
  6
Continuous
 62
     7
370
    15
100
AcDbLine
 10
1237.2331497491
 20
-656.7789236917
 30
0.0
 11
1237.2331497491
 21
-639.4787947549
 31
0.0
  0
LINE
  5
21E
330
1F
100
AcDbEntity
  8
0
  6
Continuous
 62
     7
370
    15
100
AcDbLine
 10
1239.5331498001
 20
-639.4787947549
 30
0.0
 11
1239.5331498001
 21
-636.978975953
 31
0.0
  0
LINE
  5
21F
330
1F
100
AcDbEntity
  8
0
  6
Continuous
 62
     7
370
    15
100
AcDbLine
 10
1239.5331498001
 20
-639.4787947549
 30
0.0
 11
1237.433149875
 21
-639.4787947549
 31
0.0
  0
LINE
  5
220
330
1F
100
AcDbEntity
  8
0
  6
Continuous
 62
     7
370
    15
100
AcDbLine
 10
1239.5331498001
 20
-636.978975953
 30
0.0
 11
1237.433149875
 21
-636.978975953
 31
0.0
  0
LINE
  5
221
330
1F
100
AcDbEntity
  8
0
  6
Continuous
 62
     7
370
    15
100
AcDbLine
 10
1257.0331496418
 20
-656.9789568796
 30
0.0
 11
1257.2331502334
 21
-656.7789236917
 31
0.0
  0
LINE
  5
222
330
1F
100
AcDbEntity
  8
0
  6
Continuous
 62
     7
370
    15
100
AcDbLine
 10
1239.7331496932
 20
-637.1787707223
 30
0.0
 11
1239.7331496932
 21
-639.4787947549
 31
0.0
  0
LINE
  5
223
330
1F
100
AcDbEntity
  8
0
  6
Continuous
 62
     7
370
    15
100
AcDbLine
 10
1239.7331496932
 20
-637.1787707223
 30
0.0
 11
1239.5331498001
 21
-636.978975953
 31
0.0
  0
LINE
  5
224
330
1F
100
AcDbEntity
  8
0
  6
Continuous
 62
     7
370
    15
100
AcDbLine
 10
1257.2331502334
 20
-637.1787707223
 30
0.0
 11
1257.2331502334
 21
-639.4787947549
 31
0.0
  0
LINE
  5
225
330
1F
100
AcDbEntity
  8
0
  6
Continuous
 62
     7
370
    15
100
AcDbLine
 10
1257.2331502334
 20
-637.1787707223
 30
0.0
 11
1257.0331496418
 21
-636.978975953
 31
0.0
  0
LINE
  5
226
330
1F
100
AcDbEntity
  8
0
  6
Continuous
 62
     7
370
    15
100
AcDbLine
 10
1241.2331497062
 20
1305.821128665
 30
0.0
 11
1241.2331497062
 21
1276.221134244
 31
0.0
  0
LINE
  5
227
330
1F
100
AcDbEntity
  8
0
  6
Continuous
 62
     7
370
    15
100
AcDbLine
 10
1237.2331497491
 20
1278.1039704667
 30
0.0
 11
1237.2331497491
 21
1303.9382849918
 31
0.0
  0
LINE
  5
228
330
1F
100
AcDbEntity
  8
0
  6
Continuous
 62
     7
370
    15
100
AcDbLine
 10
1241.2331497062
 20
1360.8211320923
 30
0.0
 11
1241.2331497062
 21
1331.221133946
 31
0.0
  0
LINE
  5
229
330
1F
100
AcDbEntity
  8
0
  6
Continuous
 62
     7
370
    15
100
AcDbLine
 10
1237.2331497491
 20
1333.1039701687
 30
0.0
 11
1237.2331497491
 21
1358.9382884191
 31
0.0
  0
LINE
  5
22A
330
1F
100
AcDbEntity
  8
0
  6
Continuous
 62
     7
370
    15
100
AcDbLine
 10
1273.8592009291
 20
1436.4732247875
 30
0.0
 11
1273.8592009291
 21
1428.503973885
 31
0.0
  0
LINE
  5
22B
330
1F
100
AcDbEntity
  8
0
  6
Continuous
 62
     7
370
    15
100
AcDbLine
 10
1273.8592009291
 20
1454.3382865475
 30
0.0
 11
1273.8592009291
 21
1436.4732247875
 31
0.0
  0
LINE
  5
22C
330
1F
100
AcDbEntity
  8
0
  6
Continuous
 62
     7
370
    15
100
AcDbLine
 10
1252.7331494958
 20
1290.4400830255
 30
0.0
 11
1252.7331494958
 21
1305.821128665
 31
0.0
  0
LINE
  5
22D
330
1F
100
AcDbEntity
  8
0
  6
Continuous
 62
     7
370
    15
100
AcDbLine
 10
1252.7331494958
 20
1276.221134244
 30
0.0
 11
1252.7331494958
 21
1290.4400830255
 31
0.0
  0
LINE
  5
22E
330
1F
100
AcDbEntity
  8
0
  6
Continuous
 62
     7
370
    15
100
AcDbLine
 10
1252.9331500873
 20
1290.4322301136
 30
0.0
 11
1252.9331500873
 21
1276.0211308585
 31
0.0
  0
LINE
  5
22F
330
1F
100
AcDbEntity
  8
0
  6
Continuous
 62
     7
370
    15
100
AcDbLine
 10
1252.9331500873
 20
1306.0211320506
 30
0.0
 11
1252.9331500873
 21
1290.4322301136
 31
0.0
  0
LINE
  5
230
330
1F
100
AcDbEntity
  8
0
  6
Continuous
 62
     7
370
    15
100
AcDbLine
 10
1262.03314953
 20
1290.4322301136
 30
0.0
 11
1262.03314953
 21
1306.0211320506
 31
0.0
  0
LINE
  5
231
330
1F
100
AcDbEntity
  8
0
  6
Continuous
 62
     7
370
    15
100
AcDbLine
 10
1262.03314953
 20
1276.0211308585
 30
0.0
 11
1262.03314953
 21
1290.4322301136
 31
0.0
  0
LINE
  5
232
330
1F
100
AcDbEntity
  8
0
  6
Continuous
 62
     7
370
    15
100
AcDbLine
 10
1252.7331494958
 20
1346.0200880752
 30
0.0
 11
1252.7331494958
 21
1360.8211320923
 31
0.0
  0
LINE
  5
233
330
1F
100
AcDbEntity
  8
0
  6
Continuous
 62
     7
370
    15
100
AcDbLine
 10
1252.7331494958
 20
1331.221133946
 30
0.0
 11
1252.7331494958
 21
1346.0200880752
 31
0.0
  0
LINE
  5
234
330
1F
100
AcDbEntity
  8
0
  6
Continuous
 62
     7
370
    15
100
AcDbLine
 10
1252.9331500873
 20
1346.0200731741
 30
0.0
 11
1252.9331500873
 21
1331.0211305605
 31
0.0
  0
LINE
  5
235
330
1F
100
AcDbEntity
  8
0
  6
Continuous
 62
     7
370
    15
100
AcDbLine
 10
1252.9331500873
 20
1361.0211317526
 30
0.0
 11
1252.9331500873
 21
1346.0200731741
 31
0.0
  0
LINE
  5
236
330
1F
100
AcDbEntity
  8
0
  6
Continuous
 62
     7
370
    15
100
AcDbLine
 10
1262.03314953
 20
1346.0200731741
 30
0.0
 11
1262.03314953
 21
1361.0211317526
 31
0.0
  0
LINE
  5
237
330
1F
100
AcDbEntity
  8
0
  6
Continuous
 62
     7
370
    15
100
AcDbLine
 10
1262.03314953
 20
1331.0211305605
 30
0.0
 11
1262.03314953
 21
1346.0200731741
 31
0.0
  0
LINE
  5
238
330
1F
100
AcDbEntity
  8
0
  6
Continuous
 62
     7
370
    15
100
AcDbLine
 10
1268.2331501738
 20
1283.4162791358
 30
0.0
 11
1268.2331501738
 21
1291.0211314545
 31
0.0
  0
LINE
  5
239
330
1F
100
AcDbEntity
  8
0
  6
Continuous
 62
     7
370
    15
100
AcDbLine
 10
1268.2331501738
 20
1276.0211308585
 30
0.0
 11
1268.2331501738
 21
1283.4162791358
 31
0.0
  0
LINE
  5
23A
330
1F
100
AcDbEntity
  8
0
  6
Continuous
 62
     7
370
    15
100
AcDbLine
 10
1271.2331506655
 20
1283.4162791358
 30
0.0
 11
1271.2331506655
 21
1306.0211320506
 31
0.0
  0
LINE
  5
23B
330
1F
100
AcDbEntity
  8
0
  6
Continuous
 62
     7
370
    15
100
AcDbLine
 10
1271.2331506655
 20
1276.0211308585
 30
0.0
 11
1271.2331506655
 21
1283.4162791358
 31
0.0
  0
LINE
  5
23C
330
1F
100
AcDbEntity
  8
0
  6
Continuous
 62
     7
370
    15
100
AcDbLine
 10
1273.2331491307
 20
1284.4302584515
 30
0.0
 11
1273.2331491307
 21
1278.021127461
 31
0.0
  0
LINE
  5
23D
330
1F
100
AcDbEntity
  8
0
  6
Continuous
 62
     7
370
    15
100
AcDbLine
 10
1273.2331491307
 20
1304.0211279975
 30
0.0
 11
1273.2331491307
 21
1284.4302584515
 31
0.0
  0
LINE
  5
23E
330
1F
100
AcDbEntity
  8
0
  6
Continuous
 62
     7
370
    15
100
AcDbLine
 10
1271.2331506655
 20
1332.6826994405
 30
0.0
 11
1271.2331506655
 21
1361.0211317526
 31
0.0
  0
LINE
  5
23F
330
1F
100
AcDbEntity
  8
0
  6
Continuous
 62
     7
370
    15
100
AcDbLine
 10
1271.2331506655
 20
1331.0211305605
 30
0.0
 11
1271.2331506655
 21
1332.6826994405
 31
0.0
  0
LINE
  5
240
330
1F
100
AcDbEntity
  8
0
  6
Continuous
 62
     7
370
    15
100
AcDbLine
 10
1273.2331491307
 20
1334.4611604796
 30
0.0
 11
1273.2331491307
 21
1333.021127163
 31
0.0
  0
LINE
  5
241
330
1F
100
AcDbEntity
  8
0
  6
Continuous
 62
     7
370
    15
100
AcDbLine
 10
1273.2331491307
 20
1359.0211314247
 30
0.0
 11
1273.2331491307
 21
1334.4611604796
 31
0.0
  0
LINE
  5
242
330
1F
100
AcDbEntity
  8
0
  6
Continuous
 62
     7
370
    15
100
AcDbLine
 10
1271.2331506655
 20
1420.0200741277
 30
0.0
 11
1271.2331506655
 21
1426.4211305515
 31
0.0
  0
LINE
  5
243
330
1F
100
AcDbEntity
  8
0
  6
Continuous
 62
     7
370
    15
100
AcDbLine
 10
1271.2331506655
 20
1405.0211310485
 30
0.0
 11
1271.2331506655
 21
1420.0200741277
 31
0.0
  0
LINE
  5
244
330
1F
100
AcDbEntity
  8
0
  6
Continuous
 62
     7
370
    15
100
AcDbLine
 10
1273.2331491307
 20
1420.0202156888
 30
0.0
 11
1273.2331491307
 21
1407.0211309106
 31
0.0
  0
LINE
  5
245
330
1F
100
AcDbEntity
  8
0
  6
Continuous
 62
     7
370
    15
100
AcDbLine
 10
1273.2331491307
 20
1427.7950790809
 30
0.0
 11
1273.2331491307
 21
1420.0202156888
 31
0.0
  0
LINE
  5
246
330
1F
100
AcDbEntity
  8
0
  6
Continuous
 62
     7
370
    15
100
AcDbLine
 10
1268.2331501738
 20
1480.0200765119
 30
0.0
 11
1268.2331501738
 21
1495.0211276398
 31
0.0
  0
LINE
  5
247
330
1F
100
AcDbEntity
  8
0
  6
Continuous
 62
     7
370
    15
100
AcDbLine
 10
1271.2331506655
 20
1480.0200765119
 30
0.0
 11
1271.2331506655
 21
1495.0211276398
 31
0.0
  0
LINE
  5
248
330
1F
100
AcDbEntity
  8
0
  6
Continuous
 62
     7
370
    15
100
AcDbLine
 10
1271.2331506655
 20
1465.0211338983
 30
0.0
 11
1271.2331506655
 21
1480.0200765119
 31
0.0
  0
LINE
  5
249
330
1F
100
AcDbEntity
  8
0
  6
Continuous
 62
     7
370
    15
100
AcDbLine
 10
1273.2331491307
 20
1480.020218073
 30
0.0
 11
1273.2331491307
 21
1467.0211305009
 31
0.0
  0
LINE
  5
24A
330
1F
100
AcDbEntity
  8
0
  6
Continuous
 62
     7
370
    15
100
AcDbLine
 10
1273.2331491307
 20
1493.0211310373
 30
0.0
 11
1273.2331491307
 21
1480.020218073
 31
0.0
  0
LINE
  5
24B
330
1F
100
AcDbEntity
  8
0
  6
Continuous
 62
     7
370
    15
100
AcDbLine
 10
1233.2331500248
 20
1413.0211309628
 30
0.0
 11
1233.2331500248
 21
1425.4211303876
 31
0.0
  0
LINE
  5
24C
330
1F
100
AcDbEntity
  8
0
  6
Continuous
 62
     7
370
    15
100
AcDbLine
 10
1234.2331501887
 20
1425.4211303876
 30
0.0
 11
1234.2331501887
 21
1412.0211307989
 31
0.0
  0
LINE
  5
24D
330
1F
100
AcDbEntity
  8
0
  6
Continuous
 62
     7
370
    15
100
AcDbLine
 10
1262.03314953
 20
1412.0211307989
 30
0.0
 11
1262.03314953
 21
1421.4211315946
 31
0.0
  0
LINE
  5
24E
330
1F
100
AcDbEntity
  8
0
  6
Continuous
 62
     7
370
    15
100
AcDbLine
 10
1234.2331501887
 20
1477.9642154561
 30
0.0
 11
1234.2331501887
 21
1465.2211298333
 31
0.0
  0
LINE
  5
24F
330
1F
100
AcDbEntity
  8
0
  6
Continuous
 62
     7
370
    15
100
AcDbLine
 10
1234.2331501887
 20
1494.8211317049
 30
0.0
 11
1234.2331501887
 21
1477.9642154561
 31
0.0
  0
LINE
  5
250
330
1F
100
AcDbEntity
  8
0
  6
Continuous
 62
     7
370
    15
100
AcDbLine
 10
1231.2331496969
 20
1478.2258947478
 30
0.0
 11
1231.2331496969
 21
1492.9382880316
 31
0.0
  0
LINE
  5
251
330
1F
100
AcDbEntity
  8
0
  6
Continuous
 62
     7
370
    15
100
AcDbLine
 10
1231.2331496969
 20
1467.1039735065
 30
0.0
 11
1231.2331496969
 21
1478.2258947478
 31
0.0
  0
LINE
  5
252
330
1F
100
AcDbEntity
  8
0
  6
Continuous
 62
     7
370
    15
100
AcDbLine
 10
1254.2331497416
 20
1480.0190855847
 30
0.0
 11
1254.2331497416
 21
1509.0211336599
 31
0.0
  0
LINE
  5
253
330
1F
100
AcDbEntity
  8
0
  6
Continuous
 62
     7
370
    15
100
AcDbLine
 10
1254.2331497416
 20
1457.4211319075
 30
0.0
 11
1254.2331497416
 21
1480.0190855847
 31
0.0
  0
LINE
  5
254
330
1F
100
AcDbEntity
  8
0
  6
Continuous
 62
     7
370
    15
100
AcDbLine
 10
1255.7331499875
 20
1480.0190855847
 30
0.0
 11
1255.7331499875
 21
1509.0211336599
 31
0.0
  0
LINE
  5
255
330
1F
100
AcDbEntity
  8
0
  6
Continuous
 62
     7
370
    15
100
AcDbLine
 10
1255.7331499875
 20
1457.4211319075
 30
0.0
 11
1255.7331499875
 21
1480.0190855847
 31
0.0
  0
LINE
  5
256
330
1F
100
AcDbEntity
  8
0
  6
Continuous
 62
     7
370
    15
100
AcDbLine
 10
1234.7331493393
 20
1509.0211336599
 30
0.0
 11
1234.7331493393
 21
1457.4211319075
 31
0.0
  0
LINE
  5
257
330
1F
100
AcDbEntity
  8
0
  6
Continuous
 62
     7
370
    15
100
AcDbLine
 10
1236.2331495852
 20
1509.0211336599
 30
0.0
 11
1236.2331495852
 21
1457.4211319075
 31
0.0
  0
LINE
  5
258
330
1F
100
AcDbEntity
  8
0
  6
Continuous
 62
     7
370
    15
100
AcDbLine
 10
1253.2648238585
 20
1478.8290490494
 30
0.0
 11
1253.2648238585
 21
1457.4211319075
 31
0.0
  0
LINE
  5
259
330
1F
100
AcDbEntity
  8
0
  6
Continuous
 62
     7
370
    15
100
AcDbLine
 10
1253.2648238585
 20
1509.0211336599
 30
0.0
 11
1253.2648238585
 21
1478.8290490494
 31
0.0
  0
LINE
  5
25A
330
1F
100
AcDbEntity
  8
0
  6
Continuous
 62
     7
370
    15
100
AcDbLine
 10
1237.2535783098
 20
1457.4211319075
 30
0.0
 11
1237.2535783098
 21
1509.0211336599
 31
0.0
  0
LINE
  5
25B
330
1F
100
AcDbEntity
  8
0
  6
Continuous
 62
     7
370
    15
100
AcDbLine
 10
1236.2331495852
 20
1478.8290490494
 30
0.0
 11
1236.2331495852
 21
1509.0211336599
 31
0.0
  0
LINE
  5
25C
330
1F
100
AcDbEntity
  8
0
  6
Continuous
 62
     7
370
    15
100
AcDbLine
 10
1236.2331495852
 20
1457.4211319075
 30
0.0
 11
1236.2331495852
 21
1478.8290490494
 31
0.0
  0
LINE
  5
25D
330
1F
100
AcDbEntity
  8
0
  6
Continuous
 62
     7
370
    15
100
AcDbLine
 10
1254.2331497416
 20
1478.8290490494
 30
0.0
 11
1254.2331497416
 21
1509.0211336599
 31
0.0
  0
LINE
  5
25E
330
1F
100
AcDbEntity
  8
0
  6
Continuous
 62
     7
370
    15
100
AcDbLine
 10
1254.2331497416
 20
1457.4211319075
 30
0.0
 11
1254.2331497416
 21
1478.8290490494
 31
0.0
  0
LINE
  5
25F
330
1F
100
AcDbEntity
  8
0
  6
Continuous
 62
     7
370
    15
100
AcDbLine
 10
1262.2331491903
 20
1276.0211308585
 30
0.0
 11
1262.2331491903
 21
1291.0211314545
 31
0.0
  0
LINE
  5
260
330
1F
100
AcDbEntity
  8
0
  6
Continuous
 62
     7
370
    15
100
AcDbLine
 10
1262.2331491903
 20
1291.0211314545
 30
0.0
 11
1268.2331501738
 21
1291.0211314545
 31
0.0
  0
LINE
  5
261
330
1F
100
AcDbEntity
  8
0
  6
Continuous
 62
     7
370
    15
100
AcDbLine
 10
1268.2331501738
 20
1276.0211308585
 30
0.0
 11
1268.2331501738
 21
1291.0211314545
 31
0.0
  0
ARC
  5
262
330
1F
100
AcDbEntity
  8
0
  6
Continuous
 62
     7
370
    15
100
AcDbCircle
 10
1265.2331992302
 20
1261.0658028775
 30
0.0
 40
15.04606830648475
100
AcDbArc
 50
83.7042889556
 51
96.2170864708
  0
LINE
  5
263
330
1F
100
AcDbEntity
  8
0
  6
Continuous
 62
     7
370
    15
100
AcDbLine
 10
1262.2331491903
 20
1480.0211344944
 30
0.0
 11
1268.2331501738
 21
1480.0211344944
 31
0.0
  0
LINE
  5
264
330
1F
100
AcDbEntity
  8
0
  6
Continuous
 62
     7
370
    15
100
AcDbLine
 10
1262.2331491903
 20
1291.0211314545
 30
0.0
 11
1262.2331491903
 21
1421.4211315946
 31
0.0
  0
LINE
  5
265
330
1F
100
AcDbEntity
  8
0
  6
Continuous
 62
     7
370
    15
100
AcDbLine
 10
1262.2331491903
 20
1461.4211325632
 30
0.0
 11
1262.2331491903
 21
1480.0211344944
 31
0.0
  0
LINE
  5
266
330
1F
100
AcDbEntity
  8
0
  6
Continuous
 62
     7
370
    15
100
AcDbLine
 10
1268.2331501738
 20
1291.0211314545
 30
0.0
 11
1268.2331501738
 21
1421.4211315946
 31
0.0
  0
LINE
  5
267
330
1F
100
AcDbEntity
  8
0
  6
Continuous
 62
     7
370
    15
100
AcDbLine
 10
1268.2331501738
 20
1461.4211325632
 30
0.0
 11
1268.2331501738
 21
1480.0211344944
 31
0.0
  0
LINE
  5
268
330
1F
100
AcDbEntity
  8
0
  6
Continuous
 62
     7
370
    15
100
AcDbLine
 10
1262.2331491903
 20
1480.0211344944
 30
0.0
 11
1262.2331491903
 21
1495.0211276398
 31
0.0
  0
LINE
  5
269
330
1F
100
AcDbEntity
  8
0
  6
Continuous
 62
     7
370
    15
100
AcDbLine
 10
1268.2331501738
 20
1480.0211344944
 30
0.0
 11
1268.2331501738
 21
1495.0211276398
 31
0.0
  0
LINE
  5
26A
330
1F
100
AcDbEntity
  8
0
  6
Continuous
 62
     7
370
    15
100
AcDbLine
 10
1256.5331495598
 20
1480.0200765119
 30
0.0
 11
1256.5331495598
 21
1465.0211338983
 31
0.0
  0
LINE
  5
26B
330
1F
100
AcDbEntity
  8
0
  6
Continuous
 62
     7
370
    15
100
AcDbLine
 10
1256.5331495598
 20
1495.0211276398
 30
0.0
 11
1256.5331495598
 21
1480.0200765119
 31
0.0
  0
LINE
  5
26C
330
1F
100
AcDbEntity
  8
0
  6
Continuous
 62
     7
370
    15
100
AcDbLine
 10
1261.9331496999
 20
1480.0200765119
 30
0.0
 11
1261.9331496999
 21
1495.0211276398
 31
0.0
  0
LINE
  5
26D
330
1F
100
AcDbEntity
  8
0
  6
Continuous
 62
     7
370
    15
100
AcDbLine
 10
1261.9331496999
 20
1465.0211338983
 30
0.0
 11
1261.9331496999
 21
1480.0200765119
 31
0.0
  0
LINE
  5
26E
330
1F
100
AcDbEntity
  8
0
  6
Continuous
 62
     7
370
    15
100
AcDbLine
 10
1256.2331500695
 20
1480.0200988637
 30
0.0
 11
1256.2331500695
 21
1494.7211300121
 31
0.0
  0
LINE
  5
26F
330
1F
100
AcDbEntity
  8
0
  6
Continuous
 62
     7
370
    15
100
AcDbLine
 10
1256.2331500695
 20
1465.3211315261
 30
0.0
 11
1256.2331500695
 21
1480.0200988637
 31
0.0
  0
LINE
  5
270
330
1F
100
AcDbEntity
  8
0
  6
Continuous
 62
     8
370
    15
100
AcDbLine
 10
1239.3159926169
 20
1305.8140878664
 30
0.0
 11
1239.3159926169
 21
1276.0211308585
 31
0.0
  0
LINE
  5
271
330
1F
100
AcDbEntity
  8
0
  6
Continuous
 62
     8
370
    15
100
AcDbLine
 10
1239.3159926169
 20
1306.0211320506
 30
0.0
 11
1239.3159926169
 21
1305.8140878664
 31
0.0
  0
LINE
  5
272
330
1F
100
AcDbEntity
  8
0
  6
Continuous
 62
     8
370
    15
100
AcDbLine
 10
1239.1745712839
 20
1276.0797073231
 30
0.0
 11
1239.1745712839
 21
1305.9625555859
 31
0.0
  0
LINE
  5
273
330
1F
100
AcDbEntity
  8
0
  6
Continuous
 62
     8
370
    15
100
AcDbLine
 10
1241.0331498132
 20
1276.0211308585
 30
0.0
 11
1241.0331498132
 21
1306.0211320506
 31
0.0
  0
LINE
  5
274
330
1F
100
AcDbEntity
  8
0
  6
Continuous
 62
     8
370
    15
100
AcDbLine
 10
1237.291728542
 20
1304.0797119127
 30
0.0
 11
1237.291728542
 21
1277.9625509964
 31
0.0
  0
LINE
  5
275
330
1F
100
AcDbEntity
  8
0
  6
Continuous
 62
     8
370
    15
100
AcDbLine
 10
1239.3159926169
 20
1332.0421283231
 30
0.0
 11
1239.3159926169
 21
1331.0211305605
 31
0.0
  0
LINE
  5
276
330
1F
100
AcDbEntity
  8
0
  6
Continuous
 62
     8
370
    15
100
AcDbLine
 10
1239.3159926169
 20
1361.0211317526
 30
0.0
 11
1239.3159926169
 21
1332.0421283231
 31
0.0
  0
LINE
  5
277
330
1F
100
AcDbEntity
  8
0
  6
Continuous
 62
     8
370
    15
100
AcDbLine
 10
1241.0331498132
 20
1331.0211305605
 30
0.0
 11
1241.0331498132
 21
1361.0211317526
 31
0.0
  0
LINE
  5
278
330
1F
100
AcDbEntity
  8
0
  6
Continuous
 62
     8
370
    15
100
AcDbLine
 10
1239.1745712839
 20
1331.0797070251
 30
0.0
 11
1239.1745712839
 21
1360.9625515626
 31
0.0
  0
LINE
  5
279
330
1F
100
AcDbEntity
  8
0
  6
Continuous
 62
     8
370
    15
100
AcDbLine
 10
1237.291728542
 20
1359.0797078894
 30
0.0
 11
1237.291728542
 21
1332.9625506983
 31
0.0
  0
LINE
  5
27A
330
1F
100
AcDbEntity
  8
0
  6
Continuous
 62
     8
370
    15
100
AcDbLine
 10
1270.0592017964
 20
1435.6753942655
 30
0.0
 11
1270.0592017964
 21
1426.4211305515
 31
0.0
  0
LINE
  5
27B
330
1F
100
AcDbEntity
  8
0
  6
Continuous
 62
     8
370
    15
100
AcDbLine
 10
1270.0592017964
 20
1456.421129881
 30
0.0
 11
1270.0592017964
 21
1435.6753942655
 31
0.0
  0
LINE
  5
27C
330
1F
100
AcDbEntity
  8
0
  6
Continuous
 62
     8
370
    15
100
AcDbLine
 10
1271.7763575957
 20
1426.4211305515
 30
0.0
 11
1271.7763575957
 21
1456.421129881
 31
0.0
  0
LINE
  5
27D
330
1F
100
AcDbEntity
  8
0
  6
Continuous
 62
     8
370
    15
100
AcDbLine
 10
1271.9177807913
 20
1435.6978354142
 30
0.0
 11
1271.9177807913
 21
1426.4797088788
 31
0.0
  0
LINE
  5
27E
330
1F
100
AcDbEntity
  8
0
  6
Continuous
 62
     8
370
    15
100
AcDbLine
 10
1271.9177807913
 20
1456.3625534163
 30
0.0
 11
1271.9177807913
 21
1435.6978354142
 31
0.0
  0
LINE
  5
27F
330
1F
100
AcDbEntity
  8
0
  6
Continuous
 62
     8
370
    15
100
AcDbLine
 10
1273.8006226018
 20
1436.4190553413
 30
0.0
 11
1273.8006226018
 21
1454.4797097431
 31
0.0
  0
LINE
  5
280
330
1F
100
AcDbEntity
  8
0
  6
Continuous
 62
     8
370
    15
100
AcDbLine
 10
1273.8006226018
 20
1428.362552552
 30
0.0
 11
1273.8006226018
 21
1436.4190553413
 31
0.0
  0
LINE
  5
281
330
1F
100
AcDbEntity
  8
0
  6
Continuous
 62
     8
370
    15
100
AcDbLine
 10
1233.3159920991
 20
1495.0211276398
 30
0.0
 11
1233.3159920991
 21
1465.0211338983
 31
0.0
  0
LINE
  5
282
330
1F
100
AcDbEntity
  8
0
  6
Continuous
 62
     8
370
    15
100
AcDbLine
 10
1233.1745707661
 20
1477.9445608245
 30
0.0
 11
1233.1745707661
 21
1494.9625511752
 31
0.0
  0
LINE
  5
283
330
1F
100
AcDbEntity
  8
0
  6
Continuous
 62
     8
370
    15
100
AcDbLine
 10
1233.1745707661
 20
1465.079710363
 30
0.0
 11
1233.1745707661
 21
1477.9445608245
 31
0.0
  0
LINE
  5
284
330
1F
100
AcDbEntity
  8
0
  6
Continuous
 62
     8
370
    15
100
AcDbLine
 10
1234.0331495971
 20
1477.9364173399
 30
0.0
 11
1234.0331495971
 21
1495.0211276398
 31
0.0
  0
LINE
  5
285
330
1F
100
AcDbEntity
  8
0
  6
Continuous
 62
     8
370
    15
100
AcDbLine
 10
1234.0331495971
 20
1465.0211338983
 30
0.0
 11
1234.0331495971
 21
1477.9364173399
 31
0.0
  0
LINE
  5
286
330
1F
100
AcDbEntity
  8
0
  6
Continuous
 62
     8
370
    15
100
AcDbLine
 10
1231.2917280242
 20
1478.2062401162
 30
0.0
 11
1231.2917280242
 21
1466.9625540362
 31
0.0
  0
LINE
  5
287
330
1F
100
AcDbEntity
  8
0
  6
Continuous
 62
     8
370
    15
100
AcDbLine
 10
1231.2917280242
 20
1493.0797075019
 30
0.0
 11
1231.2917280242
 21
1478.2062401162
 31
0.0
  0
LINE
  5
288
330
1F
100
AcDbEntity
  8
0
  6
Continuous
 62
     7
370
    15
100
AcDbLine
 10
-53.5351255752
 20
-745.7000880939
 30
0.0
 11
-53.5351255752
 21
-746.6013932106
 31
0.0
  0
LINE
  5
289
330
1F
100
AcDbEntity
  8
0
  6
Continuous
 62
     7
370
    15
100
AcDbLine
 10
-38.6350968696
 20
-746.6013932106
 30
0.0
 11
-38.6350968696
 21
-745.7000880939
 31
0.0
  0
LINE
  5
28A
330
1F
100
AcDbEntity
  8
0
  6
Continuous
 62
     7
370
    15
100
AcDbLine
 10
-53.5351255752
 20
-746.6013932106
 30
0.0
 11
-52.5351384498
 21
-747.6013933745
 31
0.0
  0
LINE
  5
28B
330
1F
100
AcDbEntity
  8
0
  6
Continuous
 62
     7
370
    15
100
AcDbLine
 10
-39.6351435996
 20
-747.6013933745
 30
0.0
 11
-38.6350968696
 21
-746.6013932106
 31
0.0
  0
LINE
  5
28C
330
1F
100
AcDbEntity
  8
0
  6
Continuous
 62
     7
370
    15
100
AcDbLine
 10
973.4648248338
 20
-745.7000880939
 30
0.0
 11
973.4648248338
 21
-746.6013932106
 31
0.0
  0
LINE
  5
28D
330
1F
100
AcDbEntity
  8
0
  6
Continuous
 62
     7
370
    15
100
AcDbLine
 10
988.364913144
 20
-746.6013932106
 30
0.0
 11
988.364913144
 21
-745.7000880939
 31
0.0
  0
LINE
  5
28E
330
1F
100
AcDbEntity
  8
0
  6
Continuous
 62
     7
370
    15
100
AcDbLine
 10
973.4648248338
 20
-746.6013932106
 30
0.0
 11
974.4648715638
 21
-747.6013933745
 31
0.0
  0
LINE
  5
28F
330
1F
100
AcDbEntity
  8
0
  6
Continuous
 62
     7
370
    15
100
AcDbLine
 10
987.364866414
 20
-747.6013933745
 30
0.0
 11
988.364913144
 21
-746.6013932106
 31
0.0
  0
LINE
  5
290
330
1F
100
AcDbEntity
  8
0
  6
Continuous
 62
     7
370
    15
100
AcDbLine
 10
460.464932599
 20
-745.7000880939
 30
0.0
 11
460.464932599
 21
-746.6013932106
 31
0.0
  0
LINE
  5
291
330
1F
100
AcDbEntity
  8
0
  6
Continuous
 62
     7
370
    15
100
AcDbLine
 10
475.3649016999
 20
-746.6013932106
 30
0.0
 11
475.3649016999
 21
-745.7000880939
 31
0.0
  0
LINE
  5
292
330
1F
100
AcDbEntity
  8
0
  6
Continuous
 62
     7
370
    15
100
AcDbLine
 10
460.464932599
 20
-746.6013932106
 30
0.0
 11
461.4648601197
 21
-747.6013933745
 31
0.0
  0
LINE
  5
293
330
1F
100
AcDbEntity
  8
0
  6
Continuous
 62
     7
370
    15
100
AcDbLine
 10
474.3648549699
 20
-747.6013933745
 30
0.0
 11
475.3649016999
 21
-746.6013932106
 31
0.0
  0
LINE
  5
294
330
1F
100
AcDbEntity
  8
0
  6
Continuous
 62
     7
370
    15
100
AcDbLine
 10
-566.5351221181
 20
-745.7000880939
 30
0.0
 11
-566.5351221181
 21
-746.6013932106
 31
0.0
  0
LINE
  5
295
330
1F
100
AcDbEntity
  8
0
  6
Continuous
 62
     7
370
    15
100
AcDbLine
 10
-551.6351232148
 20
-746.6013932106
 30
0.0
 11
-551.6351232148
 21
-745.7000880939
 31
0.0
  0
LINE
  5
296
330
1F
100
AcDbEntity
  8
0
  6
Continuous
 62
     7
370
    15
100
AcDbLine
 10
-566.5351221181
 20
-746.6013932106
 30
0.0
 11
-565.5351200916
 21
-747.6013933745
 31
0.0
  0
LINE
  5
297
330
1F
100
AcDbEntity
  8
0
  6
Continuous
 62
     7
370
    15
100
AcDbLine
 10
-552.6351252414
 20
-747.6013933745
 30
0.0
 11
-551.6351232148
 21
-746.6013932106
 31
0.0
  0
LINE
  5
298
330
1F
100
AcDbEntity
  8
0
  6
Continuous
 62
     7
370
    15
100
AcDbLine
 10
1026.9149324082
 20
-749.8000876484
 30
0.0
 11
1026.9149324082
 21
-757.8000889597
 31
0.0
  0
LINE
  5
299
330
1F
100
AcDbEntity
  8
0
  6
Continuous
 62
     7
370
    15
100
AcDbLine
 10
1066.9148942612
 20
-757.8000889597
 30
0.0
 11
1066.9148942612
 21
-749.8000876484
 31
0.0
  0
LINE
  5
29A
330
1F
100
AcDbEntity
  8
0
  6
Continuous
 62
     7
370
    15
100
AcDbLine
 10
-645.0851218618
 20
-749.8000876484
 30
0.0
 11
-645.0851218618
 21
-757.8000889597
 31
0.0
  0
LINE
  5
29B
330
1F
100
AcDbEntity
  8
0
  6
Continuous
 62
     7
370
    15
100
AcDbLine
 10
-609.0851196862
 20
-719.0000878152
 30
0.0
 11
-610.8851203538
 21
-717.200088079
 31
0.0
  0
LINE
  5
29C
330
1F
100
AcDbEntity
  8
0
  6
Continuous
 62
     7
370
    15
100
AcDbLine
 10
-639.2851205386
 20
-717.200088079
 30
0.0
 11
-641.0851212062
 21
-719.0000878152
 31
0.0
  0
LINE
  5
29D
330
1F
100
AcDbEntity
  8
0
  6
Continuous
 62
     7
370
    15
100
AcDbLine
 10
-641.0851212062
 20
-745.7000880939
 30
0.0
 11
-641.0851212062
 21
-749.8000876484
 31
0.0
  0
LINE
  5
29E
330
1F
100
AcDbEntity
  8
0
  6
Continuous
 62
     7
370
    15
100
AcDbLine
 10
-641.0851212062
 20
-719.0000878152
 30
0.0
 11
-641.0851212062
 21
-720.6000878912
 31
0.0
  0
LINE
  5
29F
330
1F
100
AcDbEntity
  8
0
  6
Continuous
 62
     7
370
    15
100
AcDbLine
 10
-609.0851196862
 20
-720.6000878912
 30
0.0
 11
-609.0851196862
 21
-719.0000878152
 31
0.0
  0
LINE
  5
2A0
330
1F
100
AcDbEntity
  8
0
  6
Continuous
 62
     7
370
    15
100
AcDbLine
 10
-609.0851196862
 20
-749.8000876484
 30
0.0
 11
-609.0851196862
 21
-745.7000880939
 31
0.0
  0
LINE
  5
2A1
330
1F
100
AcDbEntity
  8
0
  6
Continuous
 62
     7
370
    15
100
AcDbLine
 10
1062.9148265504
 20
-719.0000878152
 30
0.0
 11
1061.1148854874
 21
-717.200088079
 31
0.0
  0
LINE
  5
2A2
330
1F
100
AcDbEntity
  8
0
  6
Continuous
 62
     7
370
    15
100
AcDbLine
 10
1032.7148219727
 20
-717.200088079
 30
0.0
 11
1030.9148809098
 21
-719.0000878152
 31
0.0
  0
LINE
  5
2A3
330
1F
100
AcDbEntity
  8
0
  6
Continuous
 62
     7
370
    15
100
AcDbLine
 10
1030.9148809098
 20
-745.7000880939
 30
0.0
 11
1030.9148809098
 21
-749.8000876484
 31
0.0
  0
LINE
  5
2A4
330
1F
100
AcDbEntity
  8
0
  6
Continuous
 62
     7
370
    15
100
AcDbLine
 10
1030.9148809098
 20
-719.0000878152
 30
0.0
 11
1030.9148809098
 21
-720.6000878912
 31
0.0
  0
LINE
  5
2A5
330
1F
100
AcDbEntity
  8
0
  6
Continuous
 62
     7
370
    15
100
AcDbLine
 10
1062.9148265504
 20
-720.6000878912
 30
0.0
 11
1062.9148265504
 21
-719.0000878152
 31
0.0
  0
LINE
  5
2A6
330
1F
100
AcDbEntity
  8
0
  6
Continuous
 62
     7
370
    15
100
AcDbLine
 10
1062.9148265504
 20
-749.8000876484
 30
0.0
 11
1062.9148265504
 21
-745.7000880939
 31
0.0
  0
LINE
  5
2A7
330
1F
100
AcDbEntity
  8
0
  6
Continuous
 62
     7
370
    15
100
AcDbLine
 10
-566.5851229645
 20
-716.700087997
 30
0.0
 11
-566.5851229645
 21
-720.7000877214
 31
0.0
  0
LINE
  5
2A8
330
1F
100
AcDbEntity
  8
0
  6
Continuous
 62
     7
370
    15
100
AcDbLine
 10
-551.5851149179
 20
-720.7000877214
 30
0.0
 11
-551.5851149179
 21
-716.700087997
 31
0.0
  0
LINE
  5
2A9
330
1F
100
AcDbEntity
  8
0
  6
Continuous
 62
     7
370
    15
100
AcDbLine
 10
-53.5851338721
 20
-716.700087997
 30
0.0
 11
-53.5851338721
 21
-720.7000877214
 31
0.0
  0
LINE
  5
2AA
330
1F
100
AcDbEntity
  8
0
  6
Continuous
 62
     7
370
    15
100
AcDbLine
 10
-38.5851481773
 20
-720.7000877214
 30
0.0
 11
-38.5851481773
 21
-716.700087997
 31
0.0
  0
LINE
  5
2AB
330
1F
100
AcDbEntity
  8
0
  6
Continuous
 62
     7
370
    15
100
AcDbLine
 10
973.4148761414
 20
-716.700087997
 30
0.0
 11
973.4148761414
 21
-720.7000877214
 31
0.0
  0
LINE
  5
2AC
330
1F
100
AcDbEntity
  8
0
  6
Continuous
 62
     7
370
    15
100
AcDbLine
 10
988.4148618363
 20
-720.7000877214
 30
0.0
 11
988.4148618363
 21
-716.700087997
 31
0.0
  0
LINE
  5
2AD
330
1F
100
AcDbEntity
  8
0
  6
Continuous
 62
     7
370
    15
100
AcDbLine
 10
460.4148646973
 20
-716.700087997
 30
0.0
 11
460.4148646973
 21
-720.7000877214
 31
0.0
  0
LINE
  5
2AE
330
1F
100
AcDbEntity
  8
0
  6
Continuous
 62
     7
370
    15
100
AcDbLine
 10
475.4148503922
 20
-720.7000877214
 30
0.0
 11
475.4148503922
 21
-716.700087997
 31
0.0
  0
LINE
  5
2AF
330
1F
100
AcDbEntity
  8
0
  6
Continuous
 62
     7
370
    15
100
AcDbLine
 10
-71.0851171828
 20
-713.7000875053
 30
0.0
 11
-71.0851171828
 21
-715.7000878331
 31
0.0
  0
LINE
  5
2B0
330
1F
100
AcDbEntity
  8
0
  6
Continuous
 62
     7
370
    15
100
AcDbLine
 10
-21.0851052619
 20
-715.7000878331
 30
0.0
 11
-21.0851052619
 21
-713.7000875053
 31
0.0
  0
LINE
  5
2B1
330
1F
100
AcDbEntity
  8
0
  6
Continuous
 62
     7
370
    15
100
AcDbLine
 10
-71.0851171828
 20
-715.7000878331
 30
0.0
 11
-70.0851300575
 21
-716.700087997
 31
0.0
  0
LINE
  5
2B2
330
1F
100
AcDbEntity
  8
0
  6
Continuous
 62
     7
370
    15
100
AcDbLine
 10
-22.0850923873
 20
-716.700087997
 30
0.0
 11
-21.0851052619
 21
-715.7000878331
 31
0.0
  0
LINE
  5
2B3
330
1F
100
AcDbEntity
  8
0
  6
Continuous
 62
     7
370
    15
100
AcDbLine
 10
955.9148332261
 20
-715.7000878331
 30
0.0
 11
956.9148799561
 21
-716.700087997
 31
0.0
  0
LINE
  5
2B4
330
1F
100
AcDbEntity
  8
0
  6
Continuous
 62
     7
370
    15
100
AcDbLine
 10
1004.9148580216
 20
-716.700087997
 30
0.0
 11
1005.9149047517
 21
-715.7000878331
 31
0.0
  0
LINE
  5
2B5
330
1F
100
AcDbEntity
  8
0
  6
Continuous
 62
     7
370
    15
100
AcDbLine
 10
955.9148332261
 20
-713.7000875053
 30
0.0
 11
955.9148332261
 21
-715.7000878331
 31
0.0
  0
LINE
  5
2B6
330
1F
100
AcDbEntity
  8
0
  6
Continuous
 62
     7
370
    15
100
AcDbLine
 10
1005.9149047517
 20
-715.7000878331
 30
0.0
 11
1005.9149047517
 21
-713.7000875053
 31
0.0
  0
LINE
  5
2B7
330
1F
100
AcDbEntity
  8
0
  6
Continuous
 62
     7
370
    15
100
AcDbLine
 10
-584.0851211764
 20
-715.7000878331
 30
0.0
 11
-583.0851191498
 21
-716.700087997
 31
0.0
  0
LINE
  5
2B8
330
1F
100
AcDbEntity
  8
0
  6
Continuous
 62
     7
370
    15
100
AcDbLine
 10
-535.0851187326
 20
-716.700087997
 30
0.0
 11
-534.085116706
 21
-715.7000878331
 31
0.0
  0
LINE
  5
2B9
330
1F
100
AcDbEntity
  8
0
  6
Continuous
 62
     7
370
    15
100
AcDbLine
 10
-584.0851211764
 20
-713.7000875053
 30
0.0
 11
-584.0851211764
 21
-715.7000878331
 31
0.0
  0
LINE
  5
2BA
330
1F
100
AcDbEntity
  8
0
  6
Continuous
 62
     7
370
    15
100
AcDbLine
 10
-534.085116706
 20
-715.7000878331
 30
0.0
 11
-534.085116706
 21
-713.7000875053
 31
0.0
  0
LINE
  5
2BB
330
1F
100
AcDbEntity
  8
0
  6
Continuous
 62
     7
370
    15
100
AcDbLine
 10
442.914821782
 20
-713.7000875053
 30
0.0
 11
442.914821782
 21
-715.7000878331
 31
0.0
  0
LINE
  5
2BC
330
1F
100
AcDbEntity
  8
0
  6
Continuous
 62
     7
370
    15
100
AcDbLine
 10
492.9148933076
 20
-715.7000878331
 30
0.0
 11
492.9148933076
 21
-713.7000875053
 31
0.0
  0
LINE
  5
2BD
330
1F
100
AcDbEntity
  8
0
  6
Continuous
 62
     7
370
    15
100
AcDbLine
 10
442.914821782
 20
-715.7000878331
 30
0.0
 11
443.914868512
 21
-716.700087997
 31
0.0
  0
LINE
  5
2BE
330
1F
100
AcDbEntity
  8
0
  6
Continuous
 62
     7
370
    15
100
AcDbLine
 10
491.9148465775
 20
-716.700087997
 30
0.0
 11
492.9148933076
 21
-715.7000878331
 31
0.0
  0
LINE
  5
2BF
330
1F
100
AcDbEntity
  8
0
  6
Continuous
 62
     7
370
    15
100
AcDbLine
 10
1112.7148648881
 20
-720.7000877214
 30
0.0
 11
1111.1148378037
 21
-720.7000877214
 31
0.0
  0
LINE
  5
2C0
330
1F
100
AcDbEntity
  8
0
  6
Continuous
 62
     7
370
    15
100
AcDbLine
 10
1111.1148378037
 20
-745.7000880939
 30
0.0
 11
1112.7148648881
 21
-745.7000880939
 31
0.0
  0
LINE
  5
2C1
330
1F
100
AcDbEntity
  8
0
  6
Continuous
 62
     7
370
    15
100
AcDbLine
 10
1112.7148648881
 20
-745.7000880939
 30
0.0
 11
1112.9148980759
 21
-745.5000884336
 31
0.0
  0
LINE
  5
2C2
330
1F
100
AcDbEntity
  8
0
  6
Continuous
 62
     7
370
    15
100
AcDbLine
 10
1112.9148980759
 20
-720.9000883129
 30
0.0
 11
1112.7148648881
 21
-720.7000877214
 31
0.0
  0
LINE
  5
2C3
330
1F
100
AcDbEntity
  8
0
  6
Continuous
 62
     7
370
    15
100
AcDbLine
 10
1111.1148378037
 20
-720.7000877214
 30
0.0
 11
1110.9149238251
 21
-720.9000883129
 31
0.0
  0
LINE
  5
2C4
330
1F
100
AcDbEntity
  8
0
  6
Continuous
 62
     7
370
    15
100
AcDbLine
 10
1110.9149238251
 20
-745.5000884336
 30
0.0
 11
1111.1148378037
 21
-745.7000880939
 31
0.0
  0
LINE
  5
2C5
330
1F
100
AcDbEntity
  8
0
  6
Continuous
 62
     7
370
    15
100
AcDbLine
 10
-690.8851219563
 20
-745.7000880939
 30
0.0
 11
-689.2851219821
 21
-745.7000880939
 31
0.0
  0
LINE
  5
2C6
330
1F
100
AcDbEntity
  8
0
  6
Continuous
 62
     7
370
    15
100
AcDbLine
 10
-689.2851219821
 20
-720.7000877214
 30
0.0
 11
-690.8851219563
 21
-720.7000877214
 31
0.0
  0
LINE
  5
2C7
330
1F
100
AcDbEntity
  8
0
  6
Continuous
 62
     7
370
    15
100
AcDbLine
 10
-689.2851219821
 20
-745.7000880939
 30
0.0
 11
-689.0851218562
 21
-745.5000884336
 31
0.0
  0
LINE
  5
2C8
330
1F
100
AcDbEntity
  8
0
  6
Continuous
 62
     7
370
    15
100
AcDbLine
 10
-689.0851218562
 20
-720.9000883129
 30
0.0
 11
-689.2851219821
 21
-720.7000877214
 31
0.0
  0
LINE
  5
2C9
330
1F
100
AcDbEntity
  8
0
  6
Continuous
 62
     7
370
    15
100
AcDbLine
 10
-690.8851219563
 20
-720.7000877214
 30
0.0
 11
-691.0851219512
 21
-720.9000883129
 31
0.0
  0
LINE
  5
2CA
330
1F
100
AcDbEntity
  8
0
  6
Continuous
 62
     7
370
    15
100
AcDbLine
 10
-691.0851219512
 20
-745.5000884336
 30
0.0
 11
-690.8851219563
 21
-745.7000880939
 31
0.0
  0
LINE
  5
2CB
330
1F
100
AcDbEntity
  8
0
  6
Continuous
 62
     7
370
    15
100
AcDbLine
 10
-566.5851229645
 20
-720.7000877214
 30
0.0
 11
-576.5590736486
 21
-720.7000877214
 31
0.0
  0
LINE
  5
2CC
330
1F
100
AcDbEntity
  8
0
  6
Continuous
 62
     7
370
    15
100
AcDbLine
 10
-605.6111747242
 20
-720.7000877214
 30
0.0
 11
-609.0851196862
 21
-720.7000877214
 31
0.0
  0
LINE
  5
2CD
330
1F
100
AcDbEntity
  8
0
  6
Continuous
 62
     7
370
    15
100
AcDbLine
 10
-641.0851212062
 20
-720.7000877214
 30
0.0
 11
-689.0851218562
 21
-720.7000877214
 31
0.0
  0
LINE
  5
2CE
330
1F
100
AcDbEntity
  8
0
  6
Continuous
 62
     7
370
    15
100
AcDbLine
 10
-53.5851338721
 20
-720.7000877214
 30
0.0
 11
-551.6029814101
 21
-720.7000877214
 31
0.0
  0
LINE
  5
2CF
330
1F
100
AcDbEntity
  8
0
  6
Continuous
 62
     7
370
    15
100
AcDbLine
 10
460.4148646973
 20
-720.7000877214
 30
0.0
 11
123.440959134
 21
-720.7000877214
 31
0.0
  0
LINE
  5
2D0
330
1F
100
AcDbEntity
  8
0
  6
Continuous
 62
     7
370
    15
100
AcDbLine
 10
94.3888208054
 20
-720.7000877214
 30
0.0
 11
-38.6029699661
 21
-720.7000877214
 31
0.0
  0
LINE
  5
2D1
330
1F
100
AcDbEntity
  8
0
  6
Continuous
 62
     7
370
    15
100
AcDbLine
 10
973.4148761414
 20
-720.7000877214
 30
0.0
 11
475.3969689988
 21
-720.7000877214
 31
0.0
  0
LINE
  5
2D2
330
1F
100
AcDbEntity
  8
0
  6
Continuous
 62
     7
370
    15
100
AcDbLine
 10
1110.9149238251
 20
-720.7000877214
 30
0.0
 11
1062.9148265504
 21
-720.7000877214
 31
0.0
  0
LINE
  5
2D3
330
1F
100
AcDbEntity
  8
0
  6
Continuous
 62
     7
370
    15
100
AcDbLine
 10
1030.9148809098
 20
-720.7000877214
 30
0.0
 11
988.3969804429
 21
-720.7000877214
 31
0.0
  0
LINE
  5
2D4
330
1F
100
AcDbEntity
  8
0
  6
Continuous
 62
     7
370
    15
100
AcDbLine
 10
988.4649297379
 20
-745.7000880939
 30
0.0
 11
1030.9148809098
 21
-745.7000880939
 31
0.0
  0
LINE
  5
2D5
330
1F
100
AcDbEntity
  8
0
  6
Continuous
 62
     7
370
    15
100
AcDbLine
 10
1062.9148265504
 20
-745.7000880939
 30
0.0
 11
1110.9149238251
 21
-745.7000880939
 31
0.0
  0
LINE
  5
2D6
330
1F
100
AcDbEntity
  8
0
  6
Continuous
 62
     7
370
    15
100
AcDbLine
 10
475.4649182938
 20
-745.7000880939
 30
0.0
 11
973.3968755387
 21
-745.7000880939
 31
0.0
  0
LINE
  5
2D7
330
1F
100
AcDbEntity
  8
0
  6
Continuous
 62
     7
370
    15
100
AcDbLine
 10
-38.5351398803
 20
-745.7000880939
 30
0.0
 11
93.9149042748
 21
-745.7000880939
 31
0.0
  0
LINE
  5
2D8
330
1F
100
AcDbEntity
  8
0
  6
Continuous
 62
     7
370
    15
100
AcDbLine
 10
123.9148756646
 20
-745.7000880939
 30
0.0
 11
460.3968640946
 21
-745.7000880939
 31
0.0
  0
LINE
  5
2D9
330
1F
100
AcDbEntity
  8
0
  6
Continuous
 62
     7
370
    15
100
AcDbLine
 10
-551.5351215221
 20
-745.7000880939
 30
0.0
 11
-53.6031344749
 21
-745.7000880939
 31
0.0
  0
LINE
  5
2DA
330
1F
100
AcDbEntity
  8
0
  6
Continuous
 62
     7
370
    15
100
AcDbLine
 10
-689.0851218562
 20
-745.7000880939
 30
0.0
 11
-641.0851212062
 21
-745.7000880939
 31
0.0
  0
LINE
  5
2DB
330
1F
100
AcDbEntity
  8
0
  6
Continuous
 62
     7
370
    15
100
AcDbLine
 10
-609.0851196862
 20
-745.7000880939
 30
0.0
 11
-606.0851210572
 21
-745.7000880939
 31
0.0
  0
LINE
  5
2DC
330
1F
100
AcDbEntity
  8
0
  6
Continuous
 62
     7
370
    15
100
AcDbLine
 10
-576.0851198651
 20
-745.7000880939
 30
0.0
 11
-566.6031608201
 21
-745.7000880939
 31
0.0
  0
ARC
  5
2DD
330
1F
100
AcDbEntity
  8
0
  6
Continuous
 62
     7
370
    15
100
AcDbCircle
 10
1032.1148780488
 20
-758.000088048
 30
0.0
 40
0.2000000000000455
100
AcDbArc
 50
90.0
 51
180.0
  0
ARC
  5
2DE
330
1F
100
AcDbEntity
  8
0
  6
Continuous
 62
     7
370
    15
100
AcDbCircle
 10
1061.7148780488
 20
-758.000088048
 30
0.0
 40
0.2000000000000455
100
AcDbArc
 50
0.0
 51
90.0
  0
LINE
  5
2DF
330
1F
100
AcDbEntity
  8
0
  6
Continuous
 62
     7
370
    15
100
AcDbLine
 10
1061.9148990296
 20
-759.7172444192
 30
0.0
 11
1061.9148990296
 21
-758.0000886199
 31
0.0
  0
LINE
  5
2E0
330
1F
100
AcDbEntity
  8
0
  6
Continuous
 62
     7
370
    15
100
AcDbLine
 10
1031.9149276398
 20
-758.0000886199
 30
0.0
 11
1031.9149276398
 21
-759.7172444192
 31
0.0
  0
ARC
  5
2E1
330
1F
100
AcDbEntity
  8
0
  6
Continuous
 62
     7
370
    15
100
AcDbCircle
 10
1061.7148780488
 20
-759.7172453355
 30
0.0
 40
0.2000000000001302
100
AcDbArc
 50
315.0
 51
0.0
  0
ARC
  5
2E2
330
1F
100
AcDbEntity
  8
0
  6
Continuous
 62
     7
370
    15
100
AcDbCircle
 10
1032.1148780488
 20
-759.7172453355
 30
0.0
 40
0.2000000000002106
100
AcDbArc
 50
180.0
 51
225.0
  0
LINE
  5
2E3
330
1F
100
AcDbEntity
  8
0
  6
Continuous
 62
     7
370
    15
100
AcDbLine
 10
1031.973459401
 20
-759.8586676148
 30
0.0
 11
1033.8562509202
 21
-761.7415094254
 31
0.0
  0
LINE
  5
2E4
330
1F
100
AcDbEntity
  8
0
  6
Continuous
 62
     7
370
    15
100
AcDbLine
 10
1059.97345654
 20
-761.7415094254
 30
0.0
 11
1061.8562480592
 21
-759.8586676148
 31
0.0
  0
ARC
  5
2E5
330
1F
100
AcDbEntity
  8
0
  6
Continuous
 62
     7
370
    15
100
AcDbCircle
 10
1033.9977207613
 20
-761.600088048
 30
0.0
 40
0.2000000000000455
100
AcDbArc
 50
225.0
 51
270.0
  0
ARC
  5
2E6
330
1F
100
AcDbEntity
  8
0
  6
Continuous
 62
     7
370
    15
100
AcDbCircle
 10
1059.8320353363
 20
-761.600088048
 30
0.0
 40
0.2000000000000455
100
AcDbArc
 50
270.0
 51
315.0
  0
LINE
  5
2E7
330
1F
100
AcDbEntity
  8
0
  6
Continuous
 62
     7
370
    15
100
AcDbLine
 10
-610.0851217128
 20
-759.7172444192
 30
0.0
 11
-610.0851217128
 21
-758.0000886199
 31
0.0
  0
LINE
  5
2E8
330
1F
100
AcDbEntity
  8
0
  6
Continuous
 62
     7
370
    15
100
AcDbLine
 10
-640.0851229049
 20
-758.0000886199
 30
0.0
 11
-640.0851229049
 21
-759.7172444192
 31
0.0
  0
ARC
  5
2E9
330
1F
100
AcDbEntity
  8
0
  6
Continuous
 62
     7
370
    15
100
AcDbCircle
 10
-639.8851219512
 20
-758.000088048
 30
0.0
 40
0.1999999999999318
100
AcDbArc
 50
90.0
 51
180.0
  0
ARC
  5
2EA
330
1F
100
AcDbEntity
  8
0
  6
Continuous
 62
     7
370
    15
100
AcDbCircle
 10
-610.2851219512
 20
-758.000088048
 30
0.0
 40
0.1999999999999318
100
AcDbArc
 50
0.0
 51
90.0
  0
ARC
  5
2EB
330
1F
100
AcDbEntity
  8
0
  6
Continuous
 62
     7
370
    15
100
AcDbCircle
 10
-610.2851219512
 20
-759.7172453355
 30
0.0
 40
0.1999999999999695
100
AcDbArc
 50
315.0
 51
0.0
  0
ARC
  5
2EC
330
1F
100
AcDbEntity
  8
0
  6
Continuous
 62
     7
370
    15
100
AcDbCircle
 10
-639.8851219512
 20
-759.7172453355
 30
0.0
 40
0.2000000000000498
100
AcDbArc
 50
180.0
 51
225.0
  0
LINE
  5
2ED
330
1F
100
AcDbEntity
  8
0
  6
Continuous
 62
     7
370
    15
100
AcDbLine
 10
-640.026542715
 20
-759.8586676148
 30
0.0
 11
-638.1436990417
 21
-761.7415094254
 31
0.0
  0
LINE
  5
2EE
330
1F
100
AcDbEntity
  8
0
  6
Continuous
 62
     7
370
    15
100
AcDbLine
 10
-612.0265418507
 20
-761.7415094254
 30
0.0
 11
-610.1436981775
 21
-759.8586676148
 31
0.0
  0
ARC
  5
2EF
330
1F
100
AcDbEntity
  8
0
  6
Continuous
 62
     7
370
    15
100
AcDbCircle
 10
-638.0022792387
 20
-761.600088048
 30
0.0
 40
0.2000000000000498
100
AcDbArc
 50
225.0
 51
270.0
  0
ARC
  5
2F0
330
1F
100
AcDbEntity
  8
0
  6
Continuous
 62
     7
370
    15
100
AcDbCircle
 10
-612.1679646637
 20
-761.600088048
 30
0.0
 40
0.2000000000000455
100
AcDbArc
 50
270.0
 51
315.0
  0
LINE
  5
2F1
330
1F
100
AcDbEntity
  8
0
  6
Continuous
 62
     7
370
    15
100
AcDbLine
 10
123.9148756646
 20
-749.9740363535
 30
0.0
 11
123.9148756646
 21
-749.8740365234
 31
0.0
  0
LINE
  5
2F2
330
1F
100
AcDbEntity
  8
0
  6
Continuous
 62
     7
370
    15
100
AcDbLine
 10
93.9149042748
 20
-749.8740365234
 30
0.0
 11
93.9149042748
 21
-749.9740363535
 31
0.0
  0
LINE
  5
2F3
330
1F
100
AcDbEntity
  8
0
  6
Continuous
 62
     7
370
    15
100
AcDbLine
 10
93.9149042748
 20
-749.9740363535
 30
0.0
 11
94.114877858
 21
-750.1740360138
 31
0.0
  0
LINE
  5
2F4
330
1F
100
AcDbEntity
  8
0
  6
Continuous
 62
     7
370
    15
100
AcDbLine
 10
123.7149020814
 20
-750.1740360138
 30
0.0
 11
123.9148756646
 21
-749.9740363535
 31
0.0
  0
LINE
  5
2F5
330
1F
100
AcDbEntity
  8
0
  6
Continuous
 62
     7
370
    15
100
AcDbLine
 10
-576.0851198651
 20
-749.9740363535
 30
0.0
 11
-576.0851198651
 21
-749.8740365234
 31
0.0
  0
LINE
  5
2F6
330
1F
100
AcDbEntity
  8
0
  6
Continuous
 62
     7
370
    15
100
AcDbLine
 10
-576.2851232506
 20
-750.1740360138
 30
0.0
 11
-576.0851198651
 21
-749.9740363535
 31
0.0
  0
LINE
  5
2F7
330
1F
100
AcDbEntity
  8
0
  6
Continuous
 62
     7
370
    15
100
AcDbLine
 10
123.9148756646
 20
-759.174037489
 30
0.0
 11
123.9148756646
 21
-756.1740369973
 31
0.0
  0
LINE
  5
2F8
330
1F
100
AcDbEntity
  8
0
  6
Continuous
 62
     7
370
    15
100
AcDbLine
 10
93.9149042748
 20
-756.1740369973
 30
0.0
 11
93.9149042748
 21
-759.174037489
 31
0.0
  0
LINE
  5
2F9
330
1F
100
AcDbEntity
  8
0
  6
Continuous
 62
     7
370
    15
100
AcDbLine
 10
93.9149042748
 20
-759.174037489
 30
0.0
 11
95.9148785256
 21
-761.1740359542
 31
0.0
  0
LINE
  5
2FA
330
1F
100
AcDbEntity
  8
0
  6
Continuous
 62
     7
370
    15
100
AcDbLine
 10
121.9149014138
 20
-761.1740359542
 30
0.0
 11
123.9148756646
 21
-759.174037489
 31
0.0
  0
LINE
  5
2FB
330
1F
100
AcDbEntity
  8
0
  6
Continuous
 62
     7
370
    15
100
AcDbLine
 10
-576.0851198651
 20
-759.174037489
 30
0.0
 11
-576.0851198651
 21
-756.1740369973
 31
0.0
  0
LINE
  5
2FC
330
1F
100
AcDbEntity
  8
0
  6
Continuous
 62
     7
370
    15
100
AcDbLine
 10
-606.0851210572
 20
-756.1740369973
 30
0.0
 11
-606.0851210572
 21
-759.174037489
 31
0.0
  0
LINE
  5
2FD
330
1F
100
AcDbEntity
  8
0
  6
Continuous
 62
     7
370
    15
100
AcDbLine
 10
-606.0851210572
 20
-759.174037489
 30
0.0
 11
-604.0851244546
 21
-761.1740359542
 31
0.0
  0
LINE
  5
2FE
330
1F
100
AcDbEntity
  8
0
  6
Continuous
 62
     7
370
    15
100
AcDbLine
 10
-578.0851239182
 20
-761.1740359542
 30
0.0
 11
-576.0851198651
 21
-759.174037489
 31
0.0
  0
ARC
  5
2FF
330
1F
100
AcDbEntity
  8
0
  6
Continuous
 62
     7
370
    15
100
AcDbCircle
 10
-605.8851219512
 20
-721.2568793372
 30
0.0
 40
0.1999999999999695
100
AcDbArc
 50
135.0
 51
180.0
  0
ARC
  5
300
330
1F
100
AcDbEntity
  8
0
  6
Continuous
 62
     7
370
    15
100
AcDbCircle
 10
-576.2851219512
 20
-721.2568793372
 30
0.0
 40
0.1999999999999695
100
AcDbArc
 50
0.0
 51
45.0
  0
LINE
  5
301
330
1F
100
AcDbEntity
  8
0
  6
Continuous
 62
     7
370
    15
100
AcDbLine
 10
-606.0851210572
 20
-721.2568789226
 30
0.0
 11
-606.0851210572
 21
-721.9740364206
 31
0.0
  0
LINE
  5
302
330
1F
100
AcDbEntity
  8
0
  6
Continuous
 62
     7
370
    15
100
AcDbLine
 10
-576.0851198651
 20
-721.9740364206
 30
0.0
 11
-576.0851198651
 21
-721.2568789226
 31
0.0
  0
ARC
  5
303
330
1F
100
AcDbEntity
  8
0
  6
Continuous
 62
     7
370
    15
100
AcDbCircle
 10
-576.2851219512
 20
-721.9740366247
 30
0.0
 40
0.1999999999999318
100
AcDbArc
 50
270.0
 51
0.0
  0
ARC
  5
304
330
1F
100
AcDbEntity
  8
0
  6
Continuous
 62
     7
370
    15
100
AcDbCircle
 10
-605.8851219512
 20
-721.9740366247
 30
0.0
 40
0.1999999999999318
100
AcDbArc
 50
180.0
 51
270.0
  0
LINE
  5
305
330
1F
100
AcDbEntity
  8
0
  6
Continuous
 62
     7
370
    15
100
AcDbLine
 10
-576.1437037803
 20
-721.1154575896
 30
0.0
 11
-578.0265400029
 21
-719.2326148477
 31
0.0
  0
LINE
  5
306
330
1F
100
AcDbEntity
  8
0
  6
Continuous
 62
     7
370
    15
100
AcDbLine
 10
-604.1437009193
 20
-719.2326148477
 30
0.0
 11
-606.0265445925
 21
-721.1154575896
 31
0.0
  0
ARC
  5
307
330
1F
100
AcDbEntity
  8
0
  6
Continuous
 62
     7
370
    15
100
AcDbCircle
 10
-578.1679646637
 20
-719.3740366247
 30
0.0
 40
0.2000000000001592
100
AcDbArc
 50
45.0
 51
90.0
  0
ARC
  5
308
330
1F
100
AcDbEntity
  8
0
  6
Continuous
 62
     7
370
    15
100
AcDbCircle
 10
-604.0022792387
 20
-719.3740366247
 30
0.0
 40
0.2000000000000498
100
AcDbArc
 50
90.0
 51
135.0
  0
LINE
  5
309
330
1F
100
AcDbEntity
  8
0
  6
Continuous
 62
     7
370
    15
100
AcDbLine
 10
-581.3351193286
 20
-722.6740361628
 30
0.0
 11
-581.3351193286
 21
-722.1740370122
 31
0.0
  0
LINE
  5
30A
330
1F
100
AcDbEntity
  8
0
  6
Continuous
 62
     7
370
    15
100
AcDbLine
 10
-600.8351215936
 20
-722.1740370122
 30
0.0
 11
-600.8351215936
 21
-722.6740361628
 31
0.0
  0
ARC
  5
30B
330
1F
100
AcDbEntity
  8
0
  6
Continuous
 62
     7
370
    15
100
AcDbCircle
 10
94.1148780488
 20
-721.2568793372
 30
0.0
 40
0.1999999999999744
100
AcDbArc
 50
135.0
 51
180.0
  0
ARC
  5
30C
330
1F
100
AcDbEntity
  8
0
  6
Continuous
 62
     7
370
    15
100
AcDbCircle
 10
123.7148780488
 20
-721.2568793372
 30
0.0
 40
0.1999999999999744
100
AcDbArc
 50
0.0
 51
45.0
  0
ARC
  5
30D
330
1F
100
AcDbEntity
  8
0
  6
Continuous
 62
     7
370
    15
100
AcDbCircle
 10
123.7148780488
 20
-721.9740366247
 30
0.0
 40
0.1999999999999744
100
AcDbArc
 50
270.0
 51
0.0
  0
ARC
  5
30E
330
1F
100
AcDbEntity
  8
0
  6
Continuous
 62
     7
370
    15
100
AcDbCircle
 10
94.1148780488
 20
-721.9740366247
 30
0.0
 40
0.1999999999999744
100
AcDbArc
 50
180.0
 51
270.0
  0
LINE
  5
30F
330
1F
100
AcDbEntity
  8
0
  6
Continuous
 62
     7
370
    15
100
AcDbLine
 10
93.9149042748
 20
-721.2568789226
 30
0.0
 11
93.9149042748
 21
-721.9740364206
 31
0.0
  0
LINE
  5
310
330
1F
100
AcDbEntity
  8
0
  6
Continuous
 62
     7
370
    15
100
AcDbLine
 10
123.9148756646
 20
-721.9740364206
 30
0.0
 11
123.9148756646
 21
-721.2568789226
 31
0.0
  0
LINE
  5
311
330
1F
100
AcDbEntity
  8
0
  6
Continuous
 62
     7
370
    15
100
AcDbLine
 10
123.8562842988
 20
-721.1154575896
 30
0.0
 11
121.973433175
 21
-719.2326148477
 31
0.0
  0
LINE
  5
312
330
1F
100
AcDbEntity
  8
0
  6
Continuous
 62
     7
370
    15
100
AcDbLine
 10
95.8562871598
 20
-719.2326148477
 30
0.0
 11
93.973436036
 21
-721.1154575896
 31
0.0
  0
ARC
  5
313
330
1F
100
AcDbEntity
  8
0
  6
Continuous
 62
     7
370
    15
100
AcDbCircle
 10
121.8320353363
 20
-719.3740366247
 30
0.0
 40
0.2000000000000455
100
AcDbArc
 50
45.0
 51
90.0
  0
ARC
  5
314
330
1F
100
AcDbEntity
  8
0
  6
Continuous
 62
     7
370
    15
100
AcDbCircle
 10
95.9977207613
 20
-719.3740366247
 30
0.0
 40
0.2000000000000455
100
AcDbArc
 50
90.0
 51
135.0
  0
LINE
  5
315
330
1F
100
AcDbEntity
  8
0
  6
Continuous
 62
     7
370
    15
100
AcDbLine
 10
118.6648985528
 20
-722.6740361628
 30
0.0
 11
118.6648985528
 21
-722.1740370122
 31
0.0
  0
LINE
  5
316
330
1F
100
AcDbEntity
  8
0
  6
Continuous
 62
     7
370
    15
100
AcDbLine
 10
99.1648813866
 20
-722.1740370122
 30
0.0
 11
99.1648813866
 21
-722.6740361628
 31
0.0
  0
LINE
  5
317
330
1F
100
AcDbEntity
  8
0
  6
Continuous
 62
     7
370
    15
100
AcDbLine
 10
-562.0851287461
 20
-743.674036811
 30
0.0
 11
-562.0851287461
 21
-742.1740365651
 31
0.0
  0
LINE
  5
318
330
1F
100
AcDbEntity
  8
0
  6
Continuous
 62
     7
370
    15
100
AcDbLine
 10
-620.0851196266
 20
-742.1740365651
 30
0.0
 11
-620.0851196266
 21
-743.674036811
 31
0.0
  0
LINE
  5
319
330
1F
100
AcDbEntity
  8
0
  6
Continuous
 62
     7
370
    15
100
AcDbLine
 10
137.9148742341
 20
-743.674036811
 30
0.0
 11
137.9148742341
 21
-742.1740365651
 31
0.0
  0
LINE
  5
31A
330
1F
100
AcDbEntity
  8
0
  6
Continuous
 62
     7
370
    15
100
AcDbLine
 10
79.9149057053
 20
-742.1740365651
 30
0.0
 11
79.9149057053
 21
-743.674036811
 31
0.0
  0
LINE
  5
31B
330
1F
100
AcDbEntity
  8
0
  6
Continuous
 62
     7
370
    15
100
AcDbLine
 10
79.9149057053
 20
-722.6740361628
 30
0.0
 11
79.9149057053
 21
-724.1740364087
 31
0.0
  0
LINE
  5
31C
330
1F
100
AcDbEntity
  8
0
  6
Continuous
 62
     7
370
    15
100
AcDbLine
 10
137.9148742341
 20
-724.1740364087
 30
0.0
 11
137.9148742341
 21
-722.6740361628
 31
0.0
  0
LINE
  5
31D
330
1F
100
AcDbEntity
  8
0
  6
Continuous
 62
     7
370
    15
100
AcDbLine
 10
-620.0851196266
 20
-722.6740361628
 30
0.0
 11
-620.0851196266
 21
-724.1740364087
 31
0.0
  0
LINE
  5
31E
330
1F
100
AcDbEntity
  8
0
  6
Continuous
 62
     7
370
    15
100
AcDbLine
 10
-562.0851287461
 20
-724.1740364087
 30
0.0
 11
-562.0851287461
 21
-722.6740361628
 31
0.0
  0
LINE
  5
31F
330
1F
100
AcDbEntity
  8
0
  6
Continuous
 62
     7
370
    15
100
AcDbLine
 10
137.9148742341
 20
-725.1944651333
 30
0.0
 11
137.9148742341
 21
-724.1740364087
 31
0.0
  0
LINE
  5
320
330
1F
100
AcDbEntity
  8
0
  6
Continuous
 62
     7
370
    15
100
AcDbLine
 10
79.9149057053
 20
-724.1740364087
 30
0.0
 11
79.9149057053
 21
-725.1944651333
 31
0.0
  0
ARC
  5
321
330
1F
100
AcDbEntity
  8
0
  6
Continuous
 62
     7
370
    15
100
AcDbCircle
 10
147.5148780488
 20
-733.200088048
 30
0.0
 40
12.50000000000003
100
AcDbArc
 50
140.1746287392
 51
219.8253712608
  0
ARC
  5
322
330
1F
100
AcDbEntity
  8
0
  6
Continuous
 62
     7
370
    15
100
AcDbCircle
 10
70.3148780488
 20
-733.200088048
 30
0.0
 40
12.50000000000001
100
AcDbArc
 50
320.1746287392
 51
39.8253712608
  0
LINE
  5
323
330
1F
100
AcDbEntity
  8
0
  6
Continuous
 62
     7
370
    15
100
AcDbLine
 10
137.9148742341
 20
-742.1740365651
 30
0.0
 11
137.9148742341
 21
-741.205710682
 31
0.0
  0
LINE
  5
324
330
1F
100
AcDbEntity
  8
0
  6
Continuous
 62
     7
370
    15
100
AcDbLine
 10
79.9149057053
 20
-741.205710682
 30
0.0
 11
79.9149057053
 21
-742.1740365651
 31
0.0
  0
LINE
  5
325
330
1F
100
AcDbEntity
  8
0
  6
Continuous
 62
     7
370
    15
100
AcDbLine
 10
-562.0851287461
 20
-725.1944651333
 30
0.0
 11
-562.0851287461
 21
-724.1740364087
 31
0.0
  0
LINE
  5
326
330
1F
100
AcDbEntity
  8
0
  6
Continuous
 62
     7
370
    15
100
AcDbLine
 10
-620.0851196266
 20
-724.1740364087
 30
0.0
 11
-620.0851196266
 21
-725.1944651333
 31
0.0
  0
ARC
  5
327
330
1F
100
AcDbEntity
  8
0
  6
Continuous
 62
     7
370
    15
100
AcDbCircle
 10
-552.4851219512
 20
-733.200088048
 30
0.0
 40
12.50000000000007
100
AcDbArc
 50
140.1746287392
 51
219.8253712608
  0
ARC
  5
328
330
1F
100
AcDbEntity
  8
0
  6
Continuous
 62
     7
370
    15
100
AcDbCircle
 10
-629.6851219512
 20
-733.200088048
 30
0.0
 40
12.5
100
AcDbArc
 50
320.1746287392
 51
39.8253712608
  0
LINE
  5
329
330
1F
100
AcDbEntity
  8
0
  6
Continuous
 62
     7
370
    15
100
AcDbLine
 10
-562.0851287461
 20
-742.1740365651
 30
0.0
 11
-562.0851287461
 21
-741.205710682
 31
0.0
  0
LINE
  5
32A
330
1F
100
AcDbEntity
  8
0
  6
Continuous
 62
     7
370
    15
100
AcDbLine
 10
-620.0851196266
 20
-741.205710682
 30
0.0
 11
-620.0851196266
 21
-742.1740365651
 31
0.0
  0
LINE
  5
32B
330
1F
100
AcDbEntity
  8
0
  6
Continuous
 62
     7
370
    15
100
AcDbLine
 10
-576.0851198651
 20
-744.4740363833
 30
0.0
 11
-576.3851249434
 21
-744.174036893
 31
0.0
  0
LINE
  5
32C
330
1F
100
AcDbEntity
  8
0
  6
Continuous
 62
     7
370
    15
100
AcDbLine
 10
-605.7851234294
 20
-744.174036893
 30
0.0
 11
-606.0851210572
 21
-744.4740363833
 31
0.0
  0
LINE
  5
32D
330
1F
100
AcDbEntity
  8
0
  6
Continuous
 62
     7
370
    15
100
AcDbLine
 10
-576.0851198651
 20
-749.8740365234
 30
0.0
 11
-576.0851198651
 21
-744.4740363833
 31
0.0
  0
LINE
  5
32E
330
1F
100
AcDbEntity
  8
0
  6
Continuous
 62
     7
370
    15
100
AcDbLine
 10
-606.0851210572
 20
-744.4740363833
 30
0.0
 11
-606.0851210572
 21
-749.8740365234
 31
0.0
  0
LINE
  5
32F
330
1F
100
AcDbEntity
  8
0
  6
Continuous
 62
     7
370
    15
100
AcDbLine
 10
-606.0851210572
 20
-749.8740365234
 30
0.0
 11
-605.7851234294
 21
-750.1740360138
 31
0.0
  0
LINE
  5
330
330
1F
100
AcDbEntity
  8
0
  6
Continuous
 62
     7
370
    15
100
AcDbLine
 10
-576.3851249434
 20
-750.1740360138
 30
0.0
 11
-576.0851198651
 21
-749.8740365234
 31
0.0
  0
LINE
  5
331
330
1F
100
AcDbEntity
  8
0
  6
Continuous
 62
     7
370
    15
100
AcDbLine
 10
-581.3351193286
 20
-744.174036893
 30
0.0
 11
-581.3351193286
 21
-743.674036811
 31
0.0
  0
LINE
  5
332
330
1F
100
AcDbEntity
  8
0
  6
Continuous
 62
     7
370
    15
100
AcDbLine
 10
-600.8351215936
 20
-743.674036811
 30
0.0
 11
-600.8351215936
 21
-744.174036893
 31
0.0
  0
LINE
  5
333
330
1F
100
AcDbEntity
  8
0
  6
Continuous
 62
     7
370
    15
100
AcDbLine
 10
123.9148756646
 20
-749.8740365234
 30
0.0
 11
123.9148756646
 21
-744.4740363833
 31
0.0
  0
LINE
  5
334
330
1F
100
AcDbEntity
  8
0
  6
Continuous
 62
     7
370
    15
100
AcDbLine
 10
93.9149042748
 20
-744.4740363833
 30
0.0
 11
93.9149042748
 21
-749.8740365234
 31
0.0
  0
LINE
  5
335
330
1F
100
AcDbEntity
  8
0
  6
Continuous
 62
     7
370
    15
100
AcDbLine
 10
123.9148756646
 20
-744.4740363833
 30
0.0
 11
123.6148854874
 21
-744.174036893
 31
0.0
  0
LINE
  5
336
330
1F
100
AcDbEntity
  8
0
  6
Continuous
 62
     7
370
    15
100
AcDbLine
 10
94.214894452
 20
-744.174036893
 30
0.0
 11
93.9149042748
 21
-744.4740363833
 31
0.0
  0
LINE
  5
337
330
1F
100
AcDbEntity
  8
0
  6
Continuous
 62
     7
370
    15
100
AcDbLine
 10
93.9149042748
 20
-749.8740365234
 30
0.0
 11
94.214894452
 21
-750.1740360138
 31
0.0
  0
LINE
  5
338
330
1F
100
AcDbEntity
  8
0
  6
Continuous
 62
     7
370
    15
100
AcDbLine
 10
123.6148854874
 20
-750.1740360138
 30
0.0
 11
123.9148756646
 21
-749.8740365234
 31
0.0
  0
LINE
  5
339
330
1F
100
AcDbEntity
  8
0
  6
Continuous
 62
     7
370
    15
100
AcDbLine
 10
118.6648985528
 20
-744.174036893
 30
0.0
 11
118.6648985528
 21
-743.674036811
 31
0.0
  0
LINE
  5
33A
330
1F
100
AcDbEntity
  8
0
  6
Continuous
 62
     7
370
    15
100
AcDbLine
 10
99.1648813866
 20
-743.674036811
 30
0.0
 11
99.1648813866
 21
-744.174036893
 31
0.0
  0
LINE
  5
33B
330
1F
100
AcDbEntity
  8
0
  6
Continuous
 62
     7
370
    15
100
AcDbLine
 10
-40.1566246368
 20
-746.6013932106
 30
0.0
 11
-38.6350968696
 21
-746.6013932106
 31
0.0
  0
LINE
  5
33C
330
1F
100
AcDbEntity
  8
0
  6
Continuous
 62
     7
370
    15
100
AcDbLine
 10
-53.5351255752
 20
-746.6013932106
 30
0.0
 11
-40.1566246368
 21
-746.6013932106
 31
0.0
  0
LINE
  5
33D
330
1F
100
AcDbEntity
  8
0
  6
Continuous
 62
     7
370
    15
100
AcDbLine
 10
-40.9524062492
 20
-747.6013933745
 30
0.0
 11
-52.5351384498
 21
-747.6013933745
 31
0.0
  0
LINE
  5
33E
330
1F
100
AcDbEntity
  8
0
  6
Continuous
 62
     7
370
    15
100
AcDbLine
 10
-39.6351435996
 20
-747.6013933745
 30
0.0
 11
-40.9524062492
 21
-747.6013933745
 31
0.0
  0
LINE
  5
33F
330
1F
100
AcDbEntity
  8
0
  6
Continuous
 62
     7
370
    15
100
AcDbLine
 10
986.8433257722
 20
-746.6013932106
 30
0.0
 11
988.364913144
 21
-746.6013932106
 31
0.0
  0
LINE
  5
340
330
1F
100
AcDbEntity
  8
0
  6
Continuous
 62
     7
370
    15
100
AcDbLine
 10
973.4648248338
 20
-746.6013932106
 30
0.0
 11
986.8433257722
 21
-746.6013932106
 31
0.0
  0
LINE
  5
341
330
1F
100
AcDbEntity
  8
0
  6
Continuous
 62
     7
370
    15
100
AcDbLine
 10
986.0476037644
 20
-747.6013933745
 30
0.0
 11
974.4648715638
 21
-747.6013933745
 31
0.0
  0
LINE
  5
342
330
1F
100
AcDbEntity
  8
0
  6
Continuous
 62
     7
370
    15
100
AcDbLine
 10
987.364866414
 20
-747.6013933745
 30
0.0
 11
986.0476037644
 21
-747.6013933745
 31
0.0
  0
LINE
  5
343
330
1F
100
AcDbEntity
  8
0
  6
Continuous
 62
     7
370
    15
100
AcDbLine
 10
473.8433143281
 20
-746.6013932106
 30
0.0
 11
475.3649016999
 21
-746.6013932106
 31
0.0
  0
LINE
  5
344
330
1F
100
AcDbEntity
  8
0
  6
Continuous
 62
     7
370
    15
100
AcDbLine
 10
460.464932599
 20
-746.6013932106
 30
0.0
 11
473.8433143281
 21
-746.6013932106
 31
0.0
  0
LINE
  5
345
330
1F
100
AcDbEntity
  8
0
  6
Continuous
 62
     7
370
    15
100
AcDbLine
 10
473.0475923203
 20
-747.6013933745
 30
0.0
 11
461.4648601197
 21
-747.6013933745
 31
0.0
  0
LINE
  5
346
330
1F
100
AcDbEntity
  8
0
  6
Continuous
 62
     7
370
    15
100
AcDbLine
 10
474.3648549699
 20
-747.6013933745
 30
0.0
 11
473.0475923203
 21
-747.6013933745
 31
0.0
  0
LINE
  5
347
330
1F
100
AcDbEntity
  8
0
  6
Continuous
 62
     7
370
    15
100
AcDbLine
 10
-553.156650982
 20
-746.6013932106
 30
0.0
 11
-551.6351232148
 21
-746.6013932106
 31
0.0
  0
LINE
  5
348
330
1F
100
AcDbEntity
  8
0
  6
Continuous
 62
     7
370
    15
100
AcDbLine
 10
-566.5351221181
 20
-746.6013932106
 30
0.0
 11
-553.156650982
 21
-746.6013932106
 31
0.0
  0
LINE
  5
349
330
1F
100
AcDbEntity
  8
0
  6
Continuous
 62
     7
370
    15
100
AcDbLine
 10
-553.9524176933
 20
-747.6013933745
 30
0.0
 11
-565.5351200916
 21
-747.6013933745
 31
0.0
  0
LINE
  5
34A
330
1F
100
AcDbEntity
  8
0
  6
Continuous
 62
     7
370
    15
100
AcDbLine
 10
-552.6351252414
 20
-747.6013933745
 30
0.0
 11
-553.9524176933
 21
-747.6013933745
 31
0.0
  0
LINE
  5
34B
330
1F
100
AcDbEntity
  8
0
  6
Continuous
 62
     7
370
    15
100
AcDbLine
 10
1066.9148942612
 20
-749.8000876484
 30
0.0
 11
1026.9149324082
 21
-749.8000876484
 31
0.0
  0
LINE
  5
34C
330
1F
100
AcDbEntity
  8
0
  6
Continuous
 62
     7
370
    15
100
AcDbLine
 10
1066.9148942612
 20
-757.8000889597
 30
0.0
 11
1026.9149324082
 21
-757.8000889597
 31
0.0
  0
LINE
  5
34D
330
1F
100
AcDbEntity
  8
0
  6
Continuous
 62
     7
370
    15
100
AcDbLine
 10
-606.0851210572
 20
-757.8000889597
 30
0.0
 11
-645.0851218618
 21
-757.8000889597
 31
0.0
  0
LINE
  5
34E
330
1F
100
AcDbEntity
  8
0
  6
Continuous
 62
     7
370
    15
100
AcDbLine
 10
-606.0851210572
 20
-749.8000876484
 30
0.0
 11
-645.0851218618
 21
-749.8000876484
 31
0.0
  0
LINE
  5
34F
330
1F
100
AcDbEntity
  8
0
  6
Continuous
 62
     7
370
    15
100
AcDbLine
 10
-609.0851196862
 20
-719.0000878152
 30
0.0
 11
-641.0851212062
 21
-719.0000878152
 31
0.0
  0
LINE
  5
350
330
1F
100
AcDbEntity
  8
0
  6
Continuous
 62
     7
370
    15
100
AcDbLine
 10
-639.2851205386
 20
-717.200088079
 30
0.0
 11
-610.8851203538
 21
-717.200088079
 31
0.0
  0
SPLINE
  5
351
330
1F
100
AcDbEntity
  8
0
  6
Continuous
 62
     7
370
    15
100
AcDbSpline
210
0.0
220
0.0
230
1.0
 70
     8
 71
     3
 72
    10
 73
     6
 74
     0
 42
0.00000001
 43
0.00000001
 40
0.0
 40
0.0
 40
0.0
 40
0.0
 40
0.2371444491818316
 40
0.6851243029475459
 40
1.0
 40
1.0
 40
1.0
 40
1.0
 10
-609.1860228992674
 20
-745.6717060384343
 30
0.0
 10
-609.16698051654
 20
-745.6955401341053
 30
0.0
 10
-609.1119659495213
 20
-745.764398242483
 30
0.0
 10
-609.695588863341
 20
-745.034657761636
 30
0.0
 10
-610.398706072108
 20
-744.0715630691578
 30
0.0
 10
-610.6889242149565
 20
-743.674036811013
 30
0.0
  0
SPLINE
  5
352
330
1F
100
AcDbEntity
  8
0
  6
Continuous
 62
     7
370
    15
100
AcDbSpline
210
0.0
220
0.0
230
1.0
 70
     8
 71
     3
 72
    10
 73
     6
 74
     0
 42
0.00000001
 43
0.00000001
 40
0.0
 40
0.0
 40
0.0
 40
0.0
 40
0.3258668321900742
 40
0.7941890956614035
 40
0.9999999999999999
 40
0.9999999999999999
 40
0.9999999999999999
 40
0.9999999999999999
 10
-610.6603810406897
 20
-722.6740361628125
 30
0.0
 10
-610.3721374836473
 20
-722.2851572637268
 30
0.0
 10
-609.6696422700068
 20
-721.3373977783227
 30
0.0
 10
-609.1512638005925
 20
-720.6848670741037
 30
0.0
 10
-609.1005901921785
 20
-720.619916969981
 30
0.0
 10
-609.0851196862433
 20
-720.6000878912399
 30
0.0
  0
SPLINE
  5
353
330
1F
100
AcDbEntity
  8
0
  6
Continuous
 62
     7
370
    15
100
AcDbSpline
210
0.0
220
0.0
230
1.0
 70
     8
 71
     3
 72
    22
 73
    18
 74
     0
 42
0.00000001
 43
0.00000001
 40
0.0
 40
0.0
 40
0.0
 40
0.0
 40
0.0870777599190978
 40
0.1738038493586143
 40
0.2313481965222977
 40
0.2905521566990665
 40
0.3488893436459136
 40
0.4089778473778076
 40
0.477943699720293
 40
0.5473137348902332
 40
0.6291798765502328
 40
0.6881376910943754
 40
0.7487575914865442
 40
0.8086819438330766
 40
0.8706630749056211
 40
0.9564113612208249
 40
1.0
 40
1.0
 40
1.0
 40
1.0
 10
-641.0851212061617
 20
-720.6000878912399
 30
0.0
 10
-641.0024975402833
 20
-720.704225035773
 30
0.0
 10
-640.8375838907924
 20
-720.9120787586739
 30
0.0
 10
-639.7909064051059
 20
-722.2734617887724
 30
0.0
 10
-638.6643200883938
 20
-723.8443182282269
 30
0.0
 10
-637.5932553177836
 20
-725.4645885411583
 30
0.0
 10
-636.5127949874487
 20
-727.3430376574985
 30
0.0
 10
-635.5078728366955
 20
-729.5771016268515
 30
0.0
 10
-634.844639280404
 20
-732.2574130093566
 30
0.0
 10
-635.0268655648507
 20
-735.3855668432514
 30
0.0
 10
-636.013851533167
 20
-738.0731496089993
 30
0.0
 10
-637.2044327461308
 20
-740.298604624745
 30
0.0
 10
-638.3111860714581
 20
-742.0415719293593
 30
0.0
 10
-639.3759633991704
 20
-743.5572058112043
 30
0.0
 10
-640.3703674862265
 20
-744.8887508415517
 30
0.0
 10
-641.0589622791181
 20
-745.7670439932765
 30
0.0
 10
-641.0030584792371
 20
-745.6957374863156
 30
0.0
 10
-640.9842179931376
 20
-745.6717060384343
 30
0.0
  0
LINE
  5
354
330
1F
100
AcDbEntity
  8
0
  6
Continuous
 62
     7
370
    15
100
AcDbLine
 10
1062.9148265504
 20
-719.0000878152
 30
0.0
 11
1030.9148809098
 21
-719.0000878152
 31
0.0
  0
LINE
  5
355
330
1F
100
AcDbEntity
  8
0
  6
Continuous
 62
     7
370
    15
100
AcDbLine
 10
1032.7148219727
 20
-717.200088079
 30
0.0
 11
1061.1148854874
 21
-717.200088079
 31
0.0
  0
SPLINE
  5
356
330
1F
100
AcDbEntity
  8
0
  6
Continuous
 62
     7
370
    15
100
AcDbSpline
210
0.0
220
0.0
230
1.0
 70
     8
 71
     3
 72
    22
 73
    18
 74
     0
 42
0.00000001
 43
0.00000001
 40
0.0
 40
0.0
 40
0.0
 40
0.0
 40
0.0424483193708799
 40
0.1226355179352267
 40
0.2089114196319443
 40
0.3120077295969718
 40
0.362194619434992
 40
0.4135778241519906
 40
0.4821778311801501
 40
0.5511342912659426
 40
0.6347833556656024
 40
0.6944713797419658
 40
0.7558523319881401
 40
0.8161946145643294
 40
0.8787130092499575
 40
0.9629714056479309
 40
1.0
 40
1.0
 40
1.0
 40
1.0
 10
1062.813975491407
 20
-745.6717060384343
 30
0.0
 10
1062.833942560496
 20
-745.6971738163556
 30
0.0
 10
1062.891628515928
 20
-745.7707516206677
 30
0.0
 10
1062.175474702381
 20
-744.8574141635191
 30
0.0
 10
1060.842990272954
 20
-743.0741903240902
 30
0.0
 10
1059.330652781203
 20
-740.8334829653328
 30
0.0
 10
1058.118523964667
 20
-738.590942969239
 30
0.0
 10
1057.247204049429
 20
-736.5259798068962
 30
0.0
 10
1056.658459074502
 20
-733.9544693093338
 30
0.0
 10
1056.900983536367
 20
-730.8204243622631
 30
0.0
 10
1057.932868935249
 20
-728.131464026852
 30
0.0
 10
1059.154746834578
 20
-725.8986383718047
 30
0.0
 10
1060.272495216506
 20
-724.1643506294254
 30
0.0
 10
1061.328065495075
 20
-722.6752406665727
 30
0.0
 10
1062.304182743641
 20
-721.3773378739016
 30
0.0
 10
1062.850282142484
 20
-720.6820735630909
 30
0.0
 10
1062.899730192699
 20
-720.6192636040018
 30
0.0
 10
1062.914826550367
 20
-720.6000878912399
 30
0.0
  0
SPLINE
  5
357
330
1F
100
AcDbEntity
  8
0
  6
Continuous
 62
     7
370
    15
100
AcDbSpline
210
0.0
220
0.0
230
1.0
 70
     8
 71
     3
 72
    22
 73
    18
 74
     0
 42
0.00000001
 43
0.00000001
 40
0.0
 40
0.0
 40
0.0
 40
0.0
 40
0.0870777714359511
 40
0.1738036438129461
 40
0.2313476701005864
 40
0.2905522476046639
 40
0.3488895874644811
 40
0.4089776857548446
 40
0.4779434728214138
 40
0.5473134200436306
 40
0.629179507167382
 40
0.6881373567369229
 40
0.7487581132172548
 40
0.8086822787217408
 40
0.870663121839014
 40
0.9564113887873399
 40
1.0
 40
1.0
 40
1.0
 40
1.0
 10
1030.914880909803
 20
-720.6000878912399
 30
0.0
 10
1030.997515929314
 20
-720.7042251558016
 30
0.0
 10
1031.162452023342
 20
-720.91207884497
 30
0.0
 10
1032.209113728331
 20
-722.2734555803894
 30
0.0
 10
1033.335637945251
 20
-723.8443337182938
 30
0.0
 10
1034.406793107062
 20
-725.4645801636912
 30
0.0
 10
1035.487271208921
 20
-727.3430264770392
 30
0.0
 10
1036.492134433273
 20
-729.5771117439459
 30
0.0
 10
1037.155364424903
 20
-732.2574106802175
 30
0.0
 10
1036.973196597424
 20
-735.3855691375745
 30
0.0
 10
1035.986185787855
 20
-738.073148103397
 30
0.0
 10
1034.795625164505
 20
-740.2986219573125
 30
0.0
 10
1033.688746801808
 20
-742.0415526189931
 30
0.0
 10
1032.624009070508
 20
-743.5572072727017
 30
0.0
 10
1031.629635554583
 20
-744.8887534211456
 30
0.0
 10
1030.941049670318
 20
-745.7670437743681
 30
0.0
 10
1030.996907111403
 20
-745.6957374262914
 30
0.0
 10
1031.015731968763
 20
-745.6717060384343
 30
0.0
  0
LWPOLYLINE
  5
358
330
1F
100
AcDbEntity
  8
0
  6
Continuous
 62
     7
370
    15
100
AcDbPolyline
 90
       13
 70
   128
 43
0.0
 10
-551.6129800893
 20
-720.7166233537
 10
-551.8605926849
 20
-720.8634035167
 10
-552.7218798019
 20
-721.3472041738
 10
-554.2285660125
 20
-722.0831585553
 10
-556.4887443401
 20
-722.8685279814
 10
-558.5587540485
 20
-723.1862440211
 10
-560.6970855809
 20
-723.0709993717
 10
-562.5708916999
 20
-722.6099704829
 10
-564.3827834941
 20
-721.8834951025
 10
-565.8916601754
 20
-721.1034342152
 10
-566.5603572346
 20
-720.7149330032
 10
-566.5851229645
 20
-720.7000877214
 10
-566.5851229645
 20
-720.7000877214
  0
LWPOLYLINE
  5
359
330
1F
100
AcDbEntity
  8
0
  6
Continuous
 62
     7
370
    15
100
AcDbPolyline
 90
       13
 70
   128
 43
0.0
 10
-38.6129835464
 20
-720.7166233537
 10
-38.8605812408
 20
-720.8634035167
 10
-39.7218683578
 20
-721.3472041738
 10
-41.2285545684
 20
-722.0831585553
 10
-43.4887626983
 20
-722.8685279814
 10
-45.5587724067
 20
-723.1862440211
 10
-47.697089038
 20
-723.0709993717
 10
-49.5708802558
 20
-722.6099704829
 10
-51.3828018523
 20
-721.8834951025
 10
-52.8916934348
 20
-721.1034342152
 10
-53.5603383399
 20
-720.7149330032
 10
-53.5851338721
 20
-720.7000877214
 10
-53.5851338721
 20
-720.7000877214
  0
LWPOLYLINE
  5
35A
330
1F
100
AcDbEntity
  8
0
  6
Continuous
 62
     7
370
    15
100
AcDbPolyline
 90
       13
 70
   128
 43
0.0
 10
988.3869668626
 20
-720.7166233537
 10
988.1393691682
 20
-720.8634035167
 10
987.2780820512
 20
-721.3472041738
 10
985.7713958405
 20
-722.0831585553
 10
983.5113069199
 20
-722.8685279814
 10
981.4412376069
 20
-723.1862440211
 10
979.3028613709
 20
-723.0709993717
 10
977.4291297578
 20
-722.6099704829
 10
975.6172677659
 20
-721.8834951025
 10
974.1083165787
 20
-721.1034342152
 10
973.4396716737
 20
-720.7149330032
 10
973.4148761414
 20
-720.7000877214
 10
973.4148761414
 20
-720.7000877214
  0
LWPOLYLINE
  5
35B
330
1F
100
AcDbEntity
  8
0
  6
Continuous
 62
     7
370
    15
100
AcDbPolyline
 90
       13
 70
   128
 43
0.0
 10
475.3870746278
 20
-720.7166233537
 10
475.1393577241
 20
-720.8634035167
 10
474.2780706071
 20
-721.3472041738
 10
472.7713843964
 20
-722.0831585553
 10
470.5112954758
 20
-722.8685279814
 10
468.4412261628
 20
-723.1862440211
 10
466.3029691361
 20
-723.0709993717
 10
464.4291183137
 20
-722.6099704829
 10
462.6172563218
 20
-721.8834951025
 10
461.1083051347
 20
-721.1034342152
 10
460.4396602296
 20
-720.7149330032
 10
460.4148646973
 20
-720.7000877214
 10
460.4148646973
 20
-720.7000877214
  0
LINE
  5
35C
330
1F
100
AcDbEntity
  8
0
  6
Continuous
 62
     7
370
    15
100
AcDbLine
 10
-21.1145499564
 20
-715.7000878331
 30
0.0
 11
-21.0851052619
 21
-715.7000878331
 31
0.0
  0
LINE
  5
35D
330
1F
100
AcDbEntity
  8
0
  6
Continuous
 62
     7
370
    15
100
AcDbLine
 10
-71.0851171828
 20
-715.7000878331
 30
0.0
 11
-21.1145499564
 21
-715.7000878331
 31
0.0
  0
LINE
  5
35E
330
1F
100
AcDbEntity
  8
0
  6
Continuous
 62
     7
370
    15
100
AcDbLine
 10
-21.0851052619
 20
-713.7000875053
 30
0.0
 11
-71.0851171828
 21
-713.7000875053
 31
0.0
  0
LINE
  5
35F
330
1F
100
AcDbEntity
  8
0
  6
Continuous
 62
     7
370
    15
100
AcDbLine
 10
-22.0850923873
 20
-716.700087997
 30
0.0
 11
-70.0851300575
 21
-716.700087997
 31
0.0
  0
LINE
  5
360
330
1F
100
AcDbEntity
  8
0
  6
Continuous
 62
     7
370
    15
100
AcDbLine
 10
1004.9148580216
 20
-716.700087997
 30
0.0
 11
956.9148799561
 21
-716.700087997
 31
0.0
  0
LINE
  5
361
330
1F
100
AcDbEntity
  8
0
  6
Continuous
 62
     7
370
    15
100
AcDbLine
 10
1005.8854600571
 20
-715.7000878331
 30
0.0
 11
1005.9149047517
 21
-715.7000878331
 31
0.0
  0
LINE
  5
362
330
1F
100
AcDbEntity
  8
0
  6
Continuous
 62
     7
370
    15
100
AcDbLine
 10
955.9148332261
 20
-715.7000878331
 30
0.0
 11
1005.8854600571
 21
-715.7000878331
 31
0.0
  0
LINE
  5
363
330
1F
100
AcDbEntity
  8
0
  6
Continuous
 62
     7
370
    15
100
AcDbLine
 10
1005.9149047517
 20
-713.7000875053
 30
0.0
 11
955.9148332261
 21
-713.7000875053
 31
0.0
  0
LINE
  5
364
330
1F
100
AcDbEntity
  8
0
  6
Continuous
 62
     7
370
    15
100
AcDbLine
 10
-535.0851187326
 20
-716.700087997
 30
0.0
 11
-583.0851191498
 21
-716.700087997
 31
0.0
  0
LINE
  5
365
330
1F
100
AcDbEntity
  8
0
  6
Continuous
 62
     7
370
    15
100
AcDbLine
 10
-534.1145315982
 20
-715.7000878331
 30
0.0
 11
-534.085116706
 21
-715.7000878331
 31
0.0
  0
LINE
  5
366
330
1F
100
AcDbEntity
  8
0
  6
Continuous
 62
     7
370
    15
100
AcDbLine
 10
-584.0851211764
 20
-715.7000878331
 30
0.0
 11
-534.1145315982
 21
-715.7000878331
 31
0.0
  0
LINE
  5
367
330
1F
100
AcDbEntity
  8
0
  6
Continuous
 62
     7
370
    15
100
AcDbLine
 10
-534.085116706
 20
-713.7000875053
 30
0.0
 11
-584.0851211764
 21
-713.7000875053
 31
0.0
  0
LINE
  5
368
330
1F
100
AcDbEntity
  8
0
  6
Continuous
 62
     7
370
    15
100
AcDbLine
 10
492.9148933076
 20
-713.7000875053
 30
0.0
 11
442.914821782
 21
-713.7000875053
 31
0.0
  0
LINE
  5
369
330
1F
100
AcDbEntity
  8
0
  6
Continuous
 62
     7
370
    15
100
AcDbLine
 10
492.8854486131
 20
-715.7000878331
 30
0.0
 11
492.9148933076
 21
-715.7000878331
 31
0.0
  0
LINE
  5
36A
330
1F
100
AcDbEntity
  8
0
  6
Continuous
 62
     7
370
    15
100
AcDbLine
 10
442.914821782
 20
-715.7000878331
 30
0.0
 11
492.8854486131
 21
-715.7000878331
 31
0.0
  0
LINE
  5
36B
330
1F
100
AcDbEntity
  8
0
  6
Continuous
 62
     7
370
    15
100
AcDbLine
 10
491.9148465775
 20
-716.700087997
 30
0.0
 11
443.914868512
 21
-716.700087997
 31
0.0
  0
LINE
  5
36C
330
1F
100
AcDbEntity
  8
0
  6
Continuous
 62
     7
370
    15
100
AcDbLine
 10
1112.7148648881
 20
-723.758503559
 30
0.0
 11
1112.7148648881
 21
-720.7000877214
 31
0.0
  0
LINE
  5
36D
330
1F
100
AcDbEntity
  8
0
  6
Continuous
 62
     7
370
    15
100
AcDbLine
 10
1112.7148648881
 20
-745.7000880939
 30
0.0
 11
1112.7148648881
 21
-723.758503559
 31
0.0
  0
LINE
  5
36E
330
1F
100
AcDbEntity
  8
0
  6
Continuous
 62
     7
370
    15
100
AcDbLine
 10
1111.1148378037
 20
-723.758503559
 30
0.0
 11
1111.1148378037
 21
-745.7000880939
 31
0.0
  0
LINE
  5
36F
330
1F
100
AcDbEntity
  8
0
  6
Continuous
 62
     7
370
    15
100
AcDbLine
 10
1111.1148378037
 20
-720.7000877214
 30
0.0
 11
1111.1148378037
 21
-723.758503559
 31
0.0
  0
LINE
  5
370
330
1F
100
AcDbEntity
  8
0
  6
Continuous
 62
     7
370
    15
100
AcDbLine
 10
1112.9148980759
 20
-723.9095692028
 30
0.0
 11
1112.9148980759
 21
-745.5000884336
 31
0.0
  0
LINE
  5
371
330
1F
100
AcDbEntity
  8
0
  6
Continuous
 62
     7
370
    15
100
AcDbLine
 10
1112.9148980759
 20
-720.9000883129
 30
0.0
 11
1112.9148980759
 21
-723.9095692028
 31
0.0
  0
LINE
  5
372
330
1F
100
AcDbEntity
  8
0
  6
Continuous
 62
     7
370
    15
100
AcDbLine
 10
-690.8851219563
 20
-720.7000877214
 30
0.0
 11
-690.8851219563
 21
-745.7000880939
 31
0.0
  0
LINE
  5
373
330
1F
100
AcDbEntity
  8
0
  6
Continuous
 62
     7
370
    15
100
AcDbLine
 10
-689.2851219821
 20
-745.7000880939
 30
0.0
 11
-689.2851219821
 21
-720.7000877214
 31
0.0
  0
LINE
  5
374
330
1F
100
AcDbEntity
  8
0
  6
Continuous
 62
     7
370
    15
100
AcDbLine
 10
-691.0851219512
 20
-745.5000884336
 30
0.0
 11
-691.0851219512
 21
-720.9000883129
 31
0.0
  0
LINE
  5
375
330
1F
100
AcDbEntity
  8
0
  6
Continuous
 62
     7
370
    15
100
AcDbLine
 10
1110.9149238251
 20
-745.7000880939
 30
0.0
 11
1110.9149238251
 21
-720.7000877214
 31
0.0
  0
LINE
  5
376
330
1F
100
AcDbEntity
  8
0
  6
Continuous
 62
     7
370
    15
100
AcDbLine
 10
-689.0851218562
 20
-745.7000880939
 30
0.0
 11
-689.0851218562
 21
-720.7000877214
 31
0.0
  0
LWPOLYLINE
  5
377
330
1F
100
AcDbEntity
  8
0
  6
Continuous
 62
     7
370
    15
100
AcDbPolyline
 90
       13
 70
   128
 43
0.0
 10
973.3968755387
 20
-745.6809838739
 10
973.6341020249
 20
-745.5393157405
 10
974.4907399796
 20
-745.0540715334
 10
975.9938499116
 20
-744.3115056929
 10
978.2578727387
 20
-743.5106148449
 10
980.3375980042
 20
-743.1791049865
 10
982.4924251221
 20
-743.286520007
 10
984.3749782227
 20
-743.7461621565
 10
986.1991187714
 20
-744.4770827395
 10
987.7356073045
 20
-745.2735935775
 10
988.4344121598
 20
-745.6817140308
 10
988.4649297379
 20
-745.7000880939
 10
988.4649297379
 20
-745.7000880939
  0
LWPOLYLINE
  5
378
330
1F
100
AcDbEntity
  8
0
  6
Continuous
 62
     7
370
    15
100
AcDbPolyline
 90
       13
 70
   128
 43
0.0
 10
-53.6031344749
 20
-745.6809838739
 10
-53.365848384
 20
-745.5393157405
 10
-52.509270034
 20
-745.0540715334
 10
-51.0061004974
 20
-744.3115056929
 10
-48.7420776702
 20
-743.5106148449
 10
-46.6624120094
 20
-743.1791049865
 10
-44.5075848914
 20
-743.286520007
 10
-42.6250317908
 20
-743.7461621565
 10
-40.8008912421
 20
-744.4770827395
 10
-39.2644027091
 20
-745.2735935775
 10
-38.5655978538
 20
-745.6817140308
 10
-38.5351398803
 20
-745.7000880939
 10
-38.5351398803
 20
-745.7000880939
  0
LWPOLYLINE
  5
379
330
1F
100
AcDbEntity
  8
0
  6
Continuous
 62
     7
370
    15
100
AcDbPolyline
 90
       13
 70
   128
 43
0.0
 10
-566.6031608201
 20
-745.6809838739
 10
-566.3658523775
 20
-745.5393157405
 10
-565.5092516757
 20
-745.0540715334
 10
-564.0061119415
 20
-744.3115056929
 10
-561.7420891143
 20
-743.5106148449
 10
-559.6624383546
 20
-743.1791049865
 10
-557.5075963355
 20
-743.286520007
 10
-555.6250432349
 20
-743.7461621565
 10
-553.8008877851
 20
-744.4770827395
 10
-552.2644141532
 20
-745.2735935775
 10
-551.5655794955
 20
-745.6817140308
 10
-551.5351215221
 20
-745.7000880939
 10
-551.5351215221
 20
-745.7000880939
  0
LWPOLYLINE
  5
37A
330
1F
100
AcDbEntity
  8
0
  6
Continuous
 62
     7
370
    15
100
AcDbPolyline
 90
       13
 70
   128
 43
0.0
 10
460.3968640946
 20
-745.6809838739
 10
460.6340905808
 20
-745.5393157405
 10
461.4907285355
 20
-745.0540715334
 10
462.9938384675
 20
-744.3115056929
 10
465.2578612946
 20
-743.5106148449
 10
467.3375865601
 20
-743.1791049865
 10
469.4924136781
 20
-743.286520007
 10
471.3749667786
 20
-743.7461621565
 10
473.1991073273
 20
-744.4770827395
 10
474.7355958604
 20
-745.2735935775
 10
475.4344007157
 20
-745.6817140308
 10
475.4649182938
 20
-745.7000880939
 10
475.4649182938
 20
-745.7000880939
  0
LINE
  5
37B
330
1F
100
AcDbEntity
  8
0
  6
Continuous
 62
     7
370
    15
100
AcDbLine
 10
1059.8320743226
 20
-761.8000877527
 30
0.0
 11
1033.9977523469
 21
-761.8000877527
 31
0.0
  0
LINE
  5
37C
330
1F
100
AcDbEntity
  8
0
  6
Continuous
 62
     7
370
    15
100
AcDbLine
 10
-612.167961321
 20
-761.8000877527
 30
0.0
 11
-638.0022795714
 21
-761.8000877527
 31
0.0
  0
LINE
  5
37D
330
1F
100
AcDbEntity
  8
0
  6
Continuous
 62
     7
370
    15
100
AcDbLine
 10
93.9149042748
 20
-749.9740363535
 30
0.0
 11
94.0148612641
 21
-749.9740363535
 31
0.0
  0
LINE
  5
37E
330
1F
100
AcDbEntity
  8
0
  6
Continuous
 62
     7
370
    15
100
AcDbLine
 10
123.8148590707
 20
-749.9740363535
 30
0.0
 11
123.9148756646
 21
-749.9740363535
 31
0.0
  0
LINE
  5
37F
330
1F
100
AcDbEntity
  8
0
  6
Continuous
 62
     7
370
    15
100
AcDbLine
 10
-576.1851215578
 20
-749.9740363535
 30
0.0
 11
-576.0851198651
 21
-749.9740363535
 31
0.0
  0
LINE
  5
380
330
1F
100
AcDbEntity
  8
0
  6
Continuous
 62
     7
370
    15
100
AcDbLine
 10
93.9149042748
 20
-759.174037489
 30
0.0
 11
123.9148756646
 21
-759.174037489
 31
0.0
  0
LINE
  5
381
330
1F
100
AcDbEntity
  8
0
  6
Continuous
 62
     7
370
    15
100
AcDbLine
 10
93.9149042748
 20
-756.1740369973
 30
0.0
 11
123.9148756646
 21
-756.1740369973
 31
0.0
  0
LINE
  5
382
330
1F
100
AcDbEntity
  8
0
  6
Continuous
 62
     7
370
    15
100
AcDbLine
 10
95.9148785256
 20
-761.1740359542
 30
0.0
 11
121.9149014138
 21
-761.1740359542
 31
0.0
  0
LINE
  5
383
330
1F
100
AcDbEntity
  8
0
  6
Continuous
 62
     7
370
    15
100
AcDbLine
 10
-606.0851210572
 20
-756.1740369973
 30
0.0
 11
-576.0851198651
 21
-756.1740369973
 31
0.0
  0
LINE
  5
384
330
1F
100
AcDbEntity
  8
0
  6
Continuous
 62
     7
370
    15
100
AcDbLine
 10
-606.0851210572
 20
-759.174037489
 30
0.0
 11
-576.0851198651
 21
-759.174037489
 31
0.0
  0
LINE
  5
385
330
1F
100
AcDbEntity
  8
0
  6
Continuous
 62
     7
370
    15
100
AcDbLine
 10
-604.0851244546
 20
-761.1740359542
 30
0.0
 11
-578.0851239182
 21
-761.1740359542
 31
0.0
  0
LINE
  5
386
330
1F
100
AcDbEntity
  8
0
  6
Continuous
 62
     7
370
    15
100
AcDbLine
 10
-576.2851232506
 20
-722.1740370122
 30
0.0
 11
-605.8851251222
 21
-722.1740370122
 31
0.0
  0
LINE
  5
387
330
1F
100
AcDbEntity
  8
0
  6
Continuous
 62
     7
370
    15
100
AcDbLine
 10
-604.002281449
 20
-719.1740365204
 30
0.0
 11
-578.1679669238
 21
-719.1740365204
 31
0.0
  0
LINE
  5
388
330
1F
100
AcDbEntity
  8
0
  6
Continuous
 62
     7
370
    15
100
AcDbLine
 10
123.7149020814
 20
-722.1740370122
 30
0.0
 11
94.114877858
 21
-722.1740370122
 31
0.0
  0
LINE
  5
389
330
1F
100
AcDbEntity
  8
0
  6
Continuous
 62
     7
370
    15
100
AcDbLine
 10
95.9977289819
 20
-719.1740365204
 30
0.0
 11
121.8320509576
 21
-719.1740365204
 31
0.0
  0
LINE
  5
38A
330
1F
100
AcDbEntity
  8
0
  6
Continuous
 62
     7
370
    15
100
AcDbLine
 10
-620.0851196266
 20
-742.1740365651
 30
0.0
 11
-562.0851287461
 21
-742.1740365651
 31
0.0
  0
LINE
  5
38B
330
1F
100
AcDbEntity
  8
0
  6
Continuous
 62
     7
370
    15
100
AcDbLine
 10
-620.0851196266
 20
-743.674036811
 30
0.0
 11
-562.0851287461
 21
-743.674036811
 31
0.0
  0
LINE
  5
38C
330
1F
100
AcDbEntity
  8
0
  6
Continuous
 62
     7
370
    15
100
AcDbLine
 10
79.9149057053
 20
-743.674036811
 30
0.0
 11
137.9148742341
 21
-743.674036811
 31
0.0
  0
LINE
  5
38D
330
1F
100
AcDbEntity
  8
0
  6
Continuous
 62
     7
370
    15
100
AcDbLine
 10
79.9149057053
 20
-742.1740365651
 30
0.0
 11
137.9148742341
 21
-742.1740365651
 31
0.0
  0
LINE
  5
38E
330
1F
100
AcDbEntity
  8
0
  6
Continuous
 62
     7
370
    15
100
AcDbLine
 10
137.9148742341
 20
-722.6740361628
 30
0.0
 11
79.9149057053
 21
-722.6740361628
 31
0.0
  0
LINE
  5
38F
330
1F
100
AcDbEntity
  8
0
  6
Continuous
 62
     7
370
    15
100
AcDbLine
 10
137.9148742341
 20
-724.1740364087
 30
0.0
 11
79.9149057053
 21
-724.1740364087
 31
0.0
  0
LINE
  5
390
330
1F
100
AcDbEntity
  8
0
  6
Continuous
 62
     7
370
    15
100
AcDbLine
 10
-562.0851287461
 20
-724.1740364087
 30
0.0
 11
-620.0851196266
 21
-724.1740364087
 31
0.0
  0
LINE
  5
391
330
1F
100
AcDbEntity
  8
0
  6
Continuous
 62
     7
370
    15
100
AcDbLine
 10
-562.0851287461
 20
-722.6740361628
 30
0.0
 11
-620.0851196266
 21
-722.6740361628
 31
0.0
  0
LINE
  5
392
330
1F
100
AcDbEntity
  8
0
  6
Continuous
 62
     7
370
    15
100
AcDbLine
 10
137.8903767251
 20
-725.1944651333
 30
0.0
 11
137.9148742341
 21
-725.1944651333
 31
0.0
  0
LINE
  5
393
330
1F
100
AcDbEntity
  8
0
  6
Continuous
 62
     7
370
    15
100
AcDbLine
 10
79.9149057053
 20
-725.1944651333
 30
0.0
 11
137.8903767251
 21
-725.1944651333
 31
0.0
  0
LINE
  5
394
330
1F
100
AcDbEntity
  8
0
  6
Continuous
 62
     7
370
    15
100
AcDbLine
 10
137.9148742341
 20
-741.205710682
 30
0.0
 11
79.9149057053
 21
-741.205710682
 31
0.0
  0
LINE
  5
395
330
1F
100
AcDbEntity
  8
0
  6
Continuous
 62
     7
370
    15
100
AcDbLine
 10
79.9149057053
 20
-742.1740365651
 30
0.0
 11
137.9148742341
 21
-742.1740365651
 31
0.0
  0
LINE
  5
396
330
1F
100
AcDbEntity
  8
0
  6
Continuous
 62
     7
370
    15
100
AcDbLine
 10
-562.1096262552
 20
-725.1944651333
 30
0.0
 11
-562.0851287461
 21
-725.1944651333
 31
0.0
  0
LINE
  5
397
330
1F
100
AcDbEntity
  8
0
  6
Continuous
 62
     7
370
    15
100
AcDbLine
 10
-620.0851196266
 20
-725.1944651333
 30
0.0
 11
-562.1096262552
 21
-725.1944651333
 31
0.0
  0
LINE
  5
398
330
1F
100
AcDbEntity
  8
0
  6
Continuous
 62
     7
370
    15
100
AcDbLine
 10
-562.0851287461
 20
-741.205710682
 30
0.0
 11
-620.0851196266
 21
-741.205710682
 31
0.0
  0
LINE
  5
399
330
1F
100
AcDbEntity
  8
0
  6
Continuous
 62
     7
370
    15
100
AcDbLine
 10
-620.0851196266
 20
-742.1740365651
 30
0.0
 11
-562.0851287461
 21
-742.1740365651
 31
0.0
  0
LINE
  5
39A
330
1F
100
AcDbEntity
  8
0
  6
Continuous
 62
     7
370
    15
100
AcDbLine
 10
93.9149042748
 20
-750.1740360138
 30
0.0
 11
93.9149042748
 21
-756.1740369973
 31
0.0
  0
LINE
  5
39B
330
1F
100
AcDbEntity
  8
0
  6
Continuous
 62
     7
370
    15
100
AcDbLine
 10
93.9149042748
 20
-750.1740360138
 30
0.0
 11
123.9148756646
 21
-750.1740360138
 31
0.0
  0
LINE
  5
39C
330
1F
100
AcDbEntity
  8
0
  6
Continuous
 62
     7
370
    15
100
AcDbLine
 10
123.9148756646
 20
-750.1740360138
 30
0.0
 11
123.9148756646
 21
-756.1740369973
 31
0.0
  0
LINE
  5
39D
330
1F
100
AcDbEntity
  8
0
  6
Continuous
 62
     7
370
    15
100
AcDbLine
 10
93.9149042748
 20
-756.1740369973
 30
0.0
 11
123.9148756646
 21
-756.1740369973
 31
0.0
  0
LINE
  5
39E
330
1F
100
AcDbEntity
  8
0
  6
Continuous
 62
     7
370
    15
100
AcDbLine
 10
-606.0851210572
 20
-750.1740360138
 30
0.0
 11
-606.0851210572
 21
-756.1740369973
 31
0.0
  0
LINE
  5
39F
330
1F
100
AcDbEntity
  8
0
  6
Continuous
 62
     7
370
    15
100
AcDbLine
 10
-576.0851198651
 20
-750.1740360138
 30
0.0
 11
-576.0851198651
 21
-756.1740369973
 31
0.0
  0
LINE
  5
3A0
330
1F
100
AcDbEntity
  8
0
  6
Continuous
 62
     7
370
    15
100
AcDbLine
 10
-606.0851210572
 20
-756.1740369973
 30
0.0
 11
-576.0851198651
 21
-756.1740369973
 31
0.0
  0
LINE
  5
3A1
330
1F
100
AcDbEntity
  8
0
  6
Continuous
 62
     7
370
    15
100
AcDbLine
 10
-606.0851210572
 20
-750.1740360138
 30
0.0
 11
-576.0851198651
 21
-750.1740360138
 31
0.0
  0
LINE
  5
3A2
330
1F
100
AcDbEntity
  8
0
  6
Continuous
 62
     7
370
    15
100
AcDbLine
 10
-605.7851234294
 20
-744.174036893
 30
0.0
 11
-576.3851249434
 21
-744.174036893
 31
0.0
  0
LINE
  5
3A3
330
1F
100
AcDbEntity
  8
0
  6
Continuous
 62
     7
370
    15
100
AcDbLine
 10
-576.0851198651
 20
-744.4740363833
 30
0.0
 11
-606.0851210572
 21
-744.4740363833
 31
0.0
  0
LINE
  5
3A4
330
1F
100
AcDbEntity
  8
0
  6
Continuous
 62
     7
370
    15
100
AcDbLine
 10
-606.0851210572
 20
-749.8740365234
 30
0.0
 11
-576.0851198651
 21
-749.8740365234
 31
0.0
  0
LINE
  5
3A5
330
1F
100
AcDbEntity
  8
0
  6
Continuous
 62
     7
370
    15
100
AcDbLine
 10
123.9148756646
 20
-744.4740363833
 30
0.0
 11
93.9149042748
 21
-744.4740363833
 31
0.0
  0
LINE
  5
3A6
330
1F
100
AcDbEntity
  8
0
  6
Continuous
 62
     7
370
    15
100
AcDbLine
 10
93.9149042748
 20
-749.8740365234
 30
0.0
 11
123.9148756646
 21
-749.8740365234
 31
0.0
  0
LINE
  5
3A7
330
1F
100
AcDbEntity
  8
0
  6
Continuous
 62
     7
370
    15
100
AcDbLine
 10
94.214894452
 20
-744.174036893
 30
0.0
 11
123.6148854874
 21
-744.174036893
 31
0.0
  0
LINE
  5
3A8
330
1F
100
AcDbEntity
  8
0
  6
Continuous
 62
     8
370
    15
100
AcDbLine
 10
1061.9148990296
 20
-758.0000886199
 30
0.0
 11
1031.9149276398
 21
-758.0000886199
 31
0.0
  0
LINE
  5
3A9
330
1F
100
AcDbEntity
  8
0
  6
Continuous
 62
     8
370
    15
100
AcDbLine
 10
1060.7708474778
 20
-759.7172444192
 30
0.0
 11
1061.9148990296
 21
-759.7172444192
 31
0.0
  0
LINE
  5
3AA
330
1F
100
AcDbEntity
  8
0
  6
Continuous
 62
     8
370
    15
100
AcDbLine
 10
1031.9149276398
 20
-759.7172444192
 30
0.0
 11
1060.7708474778
 21
-759.7172444192
 31
0.0
  0
LINE
  5
3AB
330
1F
100
AcDbEntity
  8
0
  6
Continuous
 62
     8
370
    15
100
AcDbLine
 10
1061.8562480592
 20
-759.8586676148
 30
0.0
 11
1031.973459401
 21
-759.8586676148
 31
0.0
  0
LINE
  5
3AC
330
1F
100
AcDbEntity
  8
0
  6
Continuous
 62
     8
370
    15
100
AcDbLine
 10
1033.8562509202
 20
-761.7415094254
 30
0.0
 11
1059.97345654
 21
-761.7415094254
 31
0.0
  0
LINE
  5
3AD
330
1F
100
AcDbEntity
  8
0
  6
Continuous
 62
     8
370
    15
100
AcDbLine
 10
-611.2292030669
 20
-759.7172444192
 30
0.0
 11
-610.0851217128
 21
-759.7172444192
 31
0.0
  0
LINE
  5
3AE
330
1F
100
AcDbEntity
  8
0
  6
Continuous
 62
     8
370
    15
100
AcDbLine
 10
-640.0851229049
 20
-759.7172444192
 30
0.0
 11
-611.2292030669
 21
-759.7172444192
 31
0.0
  0
LINE
  5
3AF
330
1F
100
AcDbEntity
  8
0
  6
Continuous
 62
     8
370
    15
100
AcDbLine
 10
-610.0851217128
 20
-758.0000886199
 30
0.0
 11
-640.0851229049
 21
-758.0000886199
 31
0.0
  0
LINE
  5
3B0
330
1F
100
AcDbEntity
  8
0
  6
Continuous
 62
     8
370
    15
100
AcDbLine
 10
-610.1436981775
 20
-759.8586676148
 30
0.0
 11
-640.026542715
 21
-759.8586676148
 31
0.0
  0
LINE
  5
3B1
330
1F
100
AcDbEntity
  8
0
  6
Continuous
 62
     8
370
    15
100
AcDbLine
 10
-638.1436990417
 20
-761.7415094254
 30
0.0
 11
-612.0265418507
 21
-761.7415094254
 31
0.0
  0
LINE
  5
3B2
330
1F
100
AcDbEntity
  8
0
  6
Continuous
 62
     8
370
    15
100
AcDbLine
 10
-576.0851198651
 20
-721.2568789226
 30
0.0
 11
-606.0851210572
 21
-721.2568789226
 31
0.0
  0
LINE
  5
3B3
330
1F
100
AcDbEntity
  8
0
  6
Continuous
 62
     8
370
    15
100
AcDbLine
 10
-606.0265445925
 20
-721.1154575896
 30
0.0
 11
-576.1437037803
 21
-721.1154575896
 31
0.0
  0
LINE
  5
3B4
330
1F
100
AcDbEntity
  8
0
  6
Continuous
 62
     8
370
    15
100
AcDbLine
 10
-606.0851210572
 20
-721.9740364206
 30
0.0
 11
-576.0851198651
 21
-721.9740364206
 31
0.0
  0
LINE
  5
3B5
330
1F
100
AcDbEntity
  8
0
  6
Continuous
 62
     8
370
    15
100
AcDbLine
 10
-578.0265400029
 20
-719.2326148477
 30
0.0
 11
-604.1437009193
 21
-719.2326148477
 31
0.0
  0
LINE
  5
3B6
330
1F
100
AcDbEntity
  8
0
  6
Continuous
 62
     8
370
    15
100
AcDbLine
 10
123.9148756646
 20
-721.2568789226
 30
0.0
 11
93.9149042748
 21
-721.2568789226
 31
0.0
  0
LINE
  5
3B7
330
1F
100
AcDbEntity
  8
0
  6
Continuous
 62
     8
370
    15
100
AcDbLine
 10
93.973436036
 20
-721.1154575896
 30
0.0
 11
123.8562842988
 21
-721.1154575896
 31
0.0
  0
LINE
  5
3B8
330
1F
100
AcDbEntity
  8
0
  6
Continuous
 62
     8
370
    15
100
AcDbLine
 10
93.9149042748
 20
-721.9740364206
 30
0.0
 11
123.9148756646
 21
-721.9740364206
 31
0.0
  0
LINE
  5
3B9
330
1F
100
AcDbEntity
  8
0
  6
Continuous
 62
     8
370
    15
100
AcDbLine
 10
121.973433175
 20
-719.2326148477
 30
0.0
 11
95.8562871598
 21
-719.2326148477
 31
0.0
  0
ENDSEC
  0
SECTION
  2
OBJECTS
  0
DICTIONARY
  5
C
330
0
100
AcDbDictionary
281
     1
  3
ACAD_GROUP
350
D
  3
ACAD_LAYOUT
350
1A
  3
ACAD_MLEADERSTYLE
350
3BC
  3
ACAD_MLINESTYLE
350
17
  3
ACAD_PLOTSETTINGS
350
19
  3
ACAD_PLOTSTYLENAME
350
E
  3
ACAD_VISUALSTYLE
350
2A
  3
AcDbVariableDictionary
350
3BA
  0
DICTIONARY
  5
D
102
{ACAD_REACTORS
330
C
102
}
330
C
100
AcDbDictionary
281
     1
  0
DICTIONARY
  5
1A
102
{ACAD_REACTORS
330
C
102
}
330
C
100
AcDbDictionary
281
     1
  3
Layout1
350
1E
  3
Layout2
350
26
  3
Model
350
22
  0
DICTIONARY
  5
3BC
102
{ACAD_REACTORS
330
C
102
}
330
C
100
AcDbDictionary
281
     1
  0
DICTIONARY
  5
17
102
{ACAD_REACTORS
330
C
102
}
330
C
100
AcDbDictionary
281
     1
  3
Standard
350
18
  0
DICTIONARY
  5
19
102
{ACAD_REACTORS
330
C
102
}
330
C
100
AcDbDictionary
281
     1
  0
ACDBDICTIONARYWDFLT
  5
E
102
{ACAD_REACTORS
330
C
102
}
330
C
100
AcDbDictionary
281
     1
  3
Normal
350
F
100
AcDbDictionaryWithDefault
340
F
  0
DICTIONARY
  5
2A
102
{ACAD_REACTORS
330
C
102
}
330
C
100
AcDbDictionary
281
     1
  3
2dWireframe
350
2F
  3
3D Hidden
350
31
  3
3dWireframe
350
30
  3
Basic
350
32
  3
Brighten
350
36
  3
ColorChange
350
3A
  3
Conceptual
350
34
  3
Dim
350
35
  3
Facepattern
350
39
  3
Flat
350
2B
  3
FlatWithEdges
350
2C
  3
Gouraud
350
2D
  3
GouraudWithEdges
350
2E
  3
Linepattern
350
38
  3
Realistic
350
33
  3
Thicken
350
37
  0
DICTIONARY
  5
3BA
102
{ACAD_REACTORS
330
C
102
}
330
C
100
AcDbDictionary
281
     1
  3
DIMASSOC
350
3BF
  3
HIDETEXT
350
3C0
  3
PSOLHEIGHT
350
3BE
  3
PSOLWIDTH
350
3BD
  0
LAYOUT
  5
1E
102
{ACAD_REACTORS
330
1A
102
}
330
1A
100
AcDbPlotSettings
  1

  2
none_device
  4

  6

 40
0.0
 41
0.0
 42
0.0
 43
0.0
 44
0.0
 45
0.0
 46
0.0
 47
0.0
 48
0.0
 49
0.0
140
0.0
141
0.0
142
1.0
143
1.0
 70
   688
 72
     0
 73
     0
 74
     5
  7

 75
    16
147
1.0
148
0.0
149
0.0
100
AcDbLayout
  1
Layout1
 70
     1
 71
     1
 10
0.0
 20
0.0
 11
420.0
 21
297.0
 12
0.0
 22
0.0
 32
0.0
 14
1.0000000000E+20
 24
1.0000000000E+20
 34
1.0000000000E+20
 15
-1.0000000000E+20
 25
-1.0000000000E+20
 35
-1.0000000000E+20
146
0.0
 13
0.0
 23
0.0
 33
0.0
 16
1.0
 26
0.0
 36
0.0
 17
0.0
 27
1.0
 37
0.0
 76
     0
330
1B
  0
LAYOUT
  5
26
102
{ACAD_REACTORS
330
1A
102
}
330
1A
100
AcDbPlotSettings
  1

  2
none_device
  4

  6

 40
0.0
 41
0.0
 42
0.0
 43
0.0
 44
0.0
 45
0.0
 46
0.0
 47
0.0
 48
0.0
 49
0.0
140
0.0
141
0.0
142
1.0
143
1.0
 70
   688
 72
     0
 73
     0
 74
     5
  7

 75
    16
147
1.0
148
0.0
149
0.0
100
AcDbLayout
  1
Layout2
 70
     1
 71
     2
 10
0.0
 20
0.0
 11
0.0
 21
0.0
 12
0.0
 22
0.0
 32
0.0
 14
0.0
 24
0.0
 34
0.0
 15
0.0
 25
0.0
 35
0.0
146
0.0
 13
0.0
 23
0.0
 33
0.0
 16
1.0
 26
0.0
 36
0.0
 17
0.0
 27
1.0
 37
0.0
 76
     0
330
23
  0
LAYOUT
  5
22
102
{ACAD_REACTORS
330
1A
102
}
330
1A
100
AcDbPlotSettings
  1

  2
none_device
  4

  6

 40
0.0
 41
0.0
 42
0.0
 43
0.0
 44
0.0
 45
0.0
 46
0.0
 47
0.0
 48
0.0
 49
0.0
140
0.0
141
0.0
142
1.0
143
1.0
 70
  1712
 72
     0
 73
     0
 74
     0
  7

 75
     0
147
1.0
148
0.0
149
0.0
100
AcDbLayout
  1
Model
 70
     1
 71
     0
 10
0.0
 20
0.0
 11
841.0
 21
594.0
 12
0.0
 22
0.0
 32
0.0
 14
0.0
 24
0.0
 34
0.0
 15
841.0
 25
594.0
 35
0.0
146
0.0
 13
0.0
 23
0.0
 33
0.0
 16
1.0
 26
0.0
 36
0.0
 17
0.0
 27
1.0
 37
0.0
 76
     0
330
1F
331
29
  0
MLINESTYLE
  5
18
102
{ACAD_REACTORS
330
17
102
}
330
17
100
AcDbMlineStyle
  2
Standard
 70
     0
  3

 62
   256
 51
90.0
 52
90.0
 71
     2
 49
0.5
 62
   256
  6
BYLAYER
 49
-0.5
 62
   256
  6
BYLAYER
  0
ACDBPLACEHOLDER
  5
F
102
{ACAD_REACTORS
330
E
102
}
330
E
  0
VISUALSTYLE
  5
2F
102
{ACAD_REACTORS
330
2A
102
}
330
2A
100
AcDbVisualStyle
  2
2dWireframe
 70
     4
 71
     0
 72
     2
 73
     0
 90
        0
 40
-0.6
 41
-30.0
 62
     5
 63
     7
 74
     1
 91
        4
 64
     7
 65
   257
 75
     1
175
     1
 42
1.0
 92
        0
 66
   257
 43
1.0
 76
     1
 77
     6
 78
     2
 67
     7
 79
     5
170
     0
171
     0
290
     0
174
     0
 93
        1
 44
0.0
173
     0
291
     0
 45
0.0
1001
ACAD
1000
AcDbSavedByObjectVersion
1070
     0
  0
VISUALSTYLE
  5
31
102
{ACAD_REACTORS
330
2A
102
}
330
2A
100
AcDbVisualStyle
  2
3D Hidden
 70
     6
 71
     1
 72
     2
 73
     2
 90
        0
 40
-0.6
 41
-30.0
 62
     5
 63
     7
 74
     2
 91
        2
 64
     7
 65
   257
 75
     2
175
     1
 42
40.0
 92
        0
 66
   257
 43
1.0
 76
     1
 77
     6
 78
     2
 67
     7
 79
     3
170
     0
171
     0
290
     0
174
     0
 93
        1
 44
0.0
173
     0
291
     0
 45
0.0
1001
ACAD
1000
AcDbSavedByObjectVersion
1070
     0
  0
VISUALSTYLE
  5
30
102
{ACAD_REACTORS
330
2A
102
}
330
2A
100
AcDbVisualStyle
  2
3dWireframe
 70
     5
 71
     0
 72
     2
 73
     0
 90
        0
 40
-0.6
 41
-30.0
 62
     5
 63
     7
 74
     1
 91
        4
 64
     7
 65
   257
 75
     1
175
     1
 42
1.0
 92
        0
 66
   257
 43
1.0
 76
     1
 77
     6
 78
     2
 67
     7
 79
     5
170
     0
171
     0
290
     0
174
     0
 93
        1
 44
0.0
173
     0
291
     0
 45
0.0
1001
ACAD
1000
AcDbSavedByObjectVersion
1070
     0
  0
VISUALSTYLE
  5
32
102
{ACAD_REACTORS
330
2A
102
}
330
2A
100
AcDbVisualStyle
  2
Basic
 70
     7
 71
     1
 72
     0
 73
     1
 90
        0
 40
-0.6
 41
-30.0
 62
     5
 63
     7
 74
     0
 91
        4
 64
     7
 65
   257
 75
     1
175
     1
 42
1.0
 92
        8
 66
     7
 43
1.0
 76
     1
 77
     6
 78
     2
 67
     7
 79
     5
170
     0
171
     0
290
     0
174
     0
 93
        1
 44
0.0
173
     0
291
     1
 45
0.0
1001
ACAD
1000
AcDbSavedByObjectVersion
1070
     0
  0
VISUALSTYLE
  5
36
102
{ACAD_REACTORS
330
2A
102
}
330
2A
100
AcDbVisualStyle
  2
Brighten
 70
    12
 71
     2
 72
     2
 73
     0
 90
        0
 40
-0.6
 41
-30.0
 62
     5
 63
     7
 74
     1
 91
        4
 64
     7
 65
   257
 75
     1
175
     1
 42
1.0
 92
        8
 66
     7
 43
1.0
 76
     1
 77
     6
 78
     2
 67
     7
 79
     5
170
     0
171
     0
290
     0
174
     0
 93
        1
 44
50.0
173
     0
291
     1
 45
0.0
1001
ACAD
1000
AcDbSavedByObjectVersion
1070
     0
  0
VISUALSTYLE
  5
3A
102
{ACAD_REACTORS
330
2A
102
}
330
2A
100
AcDbVisualStyle
  2
ColorChange
 70
    16
 71
     2
 72
     2
 73
     3
 90
        0
 40
-0.6
 41
-30.0
 62
     5
 63
     8
 74
     1
 91
        4
 64
     7
 65
   257
 75
     1
175
     1
 42
1.0
 92
        8
 66
     8
 43
1.0
 76
     1
 77
     6
 78
     2
 67
     7
 79
     5
170
     0
171
     0
290
     0
174
     0
 93
        1
 44
0.0
173
     0
291
     1
 45
0.0
1001
ACAD
1000
AcDbSavedByObjectVersion
1070
     0
  0
VISUALSTYLE
  5
34
102
{ACAD_REACTORS
330
2A
102
}
330
2A
100
AcDbVisualStyle
  2
Conceptual
 70
     9
 71
     3
 72
     2
 73
     0
 90
        0
 40
-0.6
 41
-30.0
 62
     5
 63
     7
 74
     2
 91
        2
 64
     7
 65
   257
 75
     1
175
     1
 42
40.0
 92
        8
 66
     7
 43
1.0
 76
     1
 77
     6
 78
     2
 67
     7
 79
     3
170
     0
171
     0
290
     0
174
     0
 93
        1
 44
0.0
173
     0
291
     0
 45
0.0
1001
ACAD
1000
AcDbSavedByObjectVersion
1070
     0
  0
VISUALSTYLE
  5
35
102
{ACAD_REACTORS
330
2A
102
}
330
2A
100
AcDbVisualStyle
  2
Dim
 70
    11
 71
     2
 72
     2
 73
     0
 90
        0
 40
-0.6
 41
-30.0
 62
     5
 63
     7
 74
     1
 91
        4
 64
     7
 65
   257
 75
     1
175
     1
 42
1.0
 92
        8
 66
     7
 43
1.0
 76
     1
 77
     6
 78
     2
 67
     7
 79
     5
170
     0
171
     0
290
     0
174
     0
 93
        1
 44
-50.0
173
     0
291
     1
 45
0.0
1001
ACAD
1000
AcDbSavedByObjectVersion
1070
     0
  0
VISUALSTYLE
  5
39
102
{ACAD_REACTORS
330
2A
102
}
330
2A
100
AcDbVisualStyle
  2
Facepattern
 70
    15
 71
     2
 72
     2
 73
     0
 90
        0
 40
-0.6
 41
-30.0
 62
     5
 63
     7
 74
     1
 91
        4
 64
     7
 65
   257
 75
     1
175
     1
 42
1.0
 92
        8
 66
     7
 43
1.0
 76
     1
 77
     6
 78
     2
 67
     7
 79
     5
170
     0
171
     0
290
     0
174
     0
 93
        1
 44
0.0
173
     0
291
     1
 45
0.0
1001
ACAD
1000
AcDbSavedByObjectVersion
1070
     0
  0
VISUALSTYLE
  5
2B
102
{ACAD_REACTORS
330
2A
102
}
330
2A
100
AcDbVisualStyle
  2
Flat
 70
     0
 71
     2
 72
     1
 73
     1
 90
        2
 40
-0.6
 41
30.0
 62
     5
 63
     7
 74
     0
 91
        4
 64
     7
 65
   257
 75
     1
175
     1
 42
1.0
 92
        8
 66
     7
 43
1.0
 76
     1
 77
     6
 78
     2
 67
     7
 79
     5
170
     0
171
     0
290
     0
174
     0
 93
       13
 44
0.0
173
     0
291
     1
 45
0.0
1001
ACAD
1000
AcDbSavedByObjectVersion
1070
     0
  0
VISUALSTYLE
  5
2C
102
{ACAD_REACTORS
330
2A
102
}
330
2A
100
AcDbVisualStyle
  2
FlatWithEdges
 70
     1
 71
     2
 72
     1
 73
     1
 90
        2
 40
-0.6
 41
30.0
 62
     5
 63
     7
 74
     1
 91
        4
 64
     7
 65
   257
 75
     1
175
     1
 42
1.0
 92
        0
 66
   257
 43
1.0
 76
     1
 77
     6
 78
     2
 67
     7
 79
     5
170
     0
171
     0
290
     0
174
     0
 93
       13
 44
0.0
173
     0
291
     1
 45
0.0
1001
ACAD
1000
AcDbSavedByObjectVersion
1070
     0
  0
VISUALSTYLE
  5
2D
102
{ACAD_REACTORS
330
2A
102
}
330
2A
100
AcDbVisualStyle
  2
Gouraud
 70
     2
 71
     2
 72
     2
 73
     1
 90
        2
 40
-0.6
 41
30.0
 62
     5
 63
     7
 74
     0
 91
        4
 64
     7
 65
   257
 75
     1
175
     1
 42
1.0
 92
        0
 66
     7
 43
1.0
 76
     1
 77
     6
 78
     2
 67
     7
 79
     5
170
     0
171
     0
290
     0
174
     0
 93
       13
 44
0.0
173
     0
291
     1
 45
0.0
1001
ACAD
1000
AcDbSavedByObjectVersion
1070
     0
  0
VISUALSTYLE
  5
2E
102
{ACAD_REACTORS
330
2A
102
}
330
2A
100
AcDbVisualStyle
  2
GouraudWithEdges
 70
     3
 71
     2
 72
     2
 73
     1
 90
        2
 40
-0.6
 41
30.0
 62
     5
 63
     7
 74
     1
 91
        4
 64
     7
 65
   257
 75
     1
175
     1
 42
1.0
 92
        0
 66
   257
 43
1.0
 76
     1
 77
     6
 78
     2
 67
     7
 79
     5
170
     0
171
     0
290
     0
174
     0
 93
       13
 44
0.0
173
     0
291
     1
 45
0.0
1001
ACAD
1000
AcDbSavedByObjectVersion
1070
     0
  0
VISUALSTYLE
  5
38
102
{ACAD_REACTORS
330
2A
102
}
330
2A
100
AcDbVisualStyle
  2
Linepattern
 70
    14
 71
     2
 72
     2
 73
     0
 90
        0
 40
-0.6
 41
-30.0
 62
     5
 63
     7
 74
     1
 91
        4
 64
     7
 65
   257
 75
     7
175
     7
 42
1.0
 92
        8
 66
     7
 43
1.0
 76
     1
 77
     6
 78
     2
 67
     7
 79
     5
170
     0
171
     0
290
     0
174
     0
 93
        1
 44
0.0
173
     0
291
     1
 45
0.0
1001
ACAD
1000
AcDbSavedByObjectVersion
1070
     0
  0
VISUALSTYLE
  5
33
102
{ACAD_REACTORS
330
2A
102
}
330
2A
100
AcDbVisualStyle
  2
Realistic
 70
     8
 71
     2
 72
     2
 73
     0
 90
        0
 40
-0.6
 41
-30.0
 62
     5
 63
     7
 74
     1
 91
        0
 64
     7
 65
   257
 75
     1
175
     1
 42
1.0
 92
        8
 66
     8
 43
1.0
 76
     1
 77
     6
 78
     2
 67
     7
 79
     5
170
     0
171
     0
290
     0
174
     0
 93
       13
 44
0.0
173
     0
291
     0
 45
0.0
1001
ACAD
1000
AcDbSavedByObjectVersion
1070
     0
  0
VISUALSTYLE
  5
37
102
{ACAD_REACTORS
330
2A
102
}
330
2A
100
AcDbVisualStyle
  2
Thicken
 70
    13
 71
     2
 72
     2
 73
     0
 90
        0
 40
-0.6
 41
-30.0
 62
     5
 63
     7
 74
     1
 91
        4
 64
     7
 65
   257
 75
     1
175
     1
 42
1.0
 92
       12
 66
     7
 43
1.0
 76
     1
 77
     6
 78
     2
 67
     7
 79
     5
170
     0
171
     0
290
     0
174
     0
 93
        1
 44
0.0
173
     0
291
     1
 45
0.0
1001
ACAD
1000
AcDbSavedByObjectVersion
1070
     0
  0
DICTIONARYVAR
  5
3BF
102
{ACAD_REACTORS
330
3BA
102
}
330
3BA
100
DictionaryVariables
280
     0
  1
2
  0
DICTIONARYVAR
  5
3C0
102
{ACAD_REACTORS
330
3BA
102
}
330
3BA
100
DictionaryVariables
280
     0
  1
1
  0
DICTIONARYVAR
  5
3BE
102
{ACAD_REACTORS
330
3BA
102
}
330
3BA
100
DictionaryVariables
280
     0
  1
80.000000
  0
DICTIONARYVAR
  5
3BD
102
{ACAD_REACTORS
330
3BA
102
}
330
3BA
100
DictionaryVariables
280
     0
  1
5.000000
  0
ENDSEC
  0
EOF
